ISO-10303-21;
HEADER;
/* Generated by software containing ST-Developer
 * from STEP Tools, Inc. (www.steptools.com) 
 */
/* OPTION: using custom schema-name function */

FILE_DESCRIPTION(
/* description */ (''),
/* implementation_level */ '2;1');

FILE_NAME(
/* name */ 'PML63.stp',
/* time_stamp */ '2017-09-06T09:48:18+02:00',
/* author */ (''),
/* organization */ (''),
/* preprocessor_version */ 'ST-DEVELOPER v15',
/* originating_system */ 'SIEMENS PLM Software NX 9.0',
/* authorisation */ '');

FILE_SCHEMA (('CONFIG_CONTROL_DESIGN'));
ENDSEC;

DATA;
#10=SHAPE_REPRESENTATION_RELATIONSHIP('None',
'relationship between PML32-None and PML32-None',#92,#11);
#11=ADVANCED_BREP_SHAPE_REPRESENTATION('PML32-None',(#93),#651);
#12=CC_DESIGN_APPROVAL(#24,(#82));
#13=CC_DESIGN_APPROVAL(#25,(#84));
#14=CC_DESIGN_APPROVAL(#26,(#31));
#15=APPROVAL_PERSON_ORGANIZATION(#69,#24,#18);
#16=APPROVAL_PERSON_ORGANIZATION(#70,#25,#19);
#17=APPROVAL_PERSON_ORGANIZATION(#71,#26,#20);
#18=APPROVAL_ROLE('approver');
#19=APPROVAL_ROLE('approver');
#20=APPROVAL_ROLE('approver');
#21=APPROVAL_DATE_TIME(#39,#24);
#22=APPROVAL_DATE_TIME(#40,#25);
#23=APPROVAL_DATE_TIME(#41,#26);
#24=APPROVAL(#27,' ');
#25=APPROVAL(#28,' ');
#26=APPROVAL(#29,' ');
#27=APPROVAL_STATUS('not_yet_approved');
#28=APPROVAL_STATUS('not_yet_approved');
#29=APPROVAL_STATUS('not_yet_approved');
#30=CC_DESIGN_SECURITY_CLASSIFICATION(#31,(#84));
#31=SECURITY_CLASSIFICATION(' ',' ',#32);
#32=SECURITY_CLASSIFICATION_LEVEL('confidential');
#33=CC_DESIGN_DATE_AND_TIME_ASSIGNMENT(#37,#35,(#82));
#34=CC_DESIGN_DATE_AND_TIME_ASSIGNMENT(#38,#36,(#31));
#35=DATE_TIME_ROLE('creation_date');
#36=DATE_TIME_ROLE('classification_date');
#37=DATE_AND_TIME(#52,#42);
#38=DATE_AND_TIME(#53,#43);
#39=DATE_AND_TIME(#54,#44);
#40=DATE_AND_TIME(#55,#45);
#41=DATE_AND_TIME(#56,#46);
#42=LOCAL_TIME(0,0,0.,#47);
#43=LOCAL_TIME(0,0,0.,#48);
#44=LOCAL_TIME(0,0,0.,#49);
#45=LOCAL_TIME(0,0,0.,#50);
#46=LOCAL_TIME(0,0,0.,#51);
#47=COORDINATED_UNIVERSAL_TIME_OFFSET(0,0,.BEHIND.);
#48=COORDINATED_UNIVERSAL_TIME_OFFSET(0,0,.BEHIND.);
#49=COORDINATED_UNIVERSAL_TIME_OFFSET(0,0,.BEHIND.);
#50=COORDINATED_UNIVERSAL_TIME_OFFSET(0,0,.BEHIND.);
#51=COORDINATED_UNIVERSAL_TIME_OFFSET(0,0,.BEHIND.);
#52=CALENDAR_DATE(0,1,1);
#53=CALENDAR_DATE(0,1,1);
#54=CALENDAR_DATE(0,1,1);
#55=CALENDAR_DATE(0,1,1);
#56=CALENDAR_DATE(0,1,1);
#57=CC_DESIGN_PERSON_AND_ORGANIZATION_ASSIGNMENT(#65,#61,(#82,#84));
#58=CC_DESIGN_PERSON_AND_ORGANIZATION_ASSIGNMENT(#66,#62,(#86));
#59=CC_DESIGN_PERSON_AND_ORGANIZATION_ASSIGNMENT(#67,#63,(#84));
#60=CC_DESIGN_PERSON_AND_ORGANIZATION_ASSIGNMENT(#68,#64,(#31));
#61=PERSON_AND_ORGANIZATION_ROLE('creator');
#62=PERSON_AND_ORGANIZATION_ROLE('design_owner');
#63=PERSON_AND_ORGANIZATION_ROLE('design_supplier');
#64=PERSON_AND_ORGANIZATION_ROLE('classification_officer');
#65=PERSON_AND_ORGANIZATION(#79,#72);
#66=PERSON_AND_ORGANIZATION(#79,#73);
#67=PERSON_AND_ORGANIZATION(#79,#74);
#68=PERSON_AND_ORGANIZATION(#79,#75);
#69=PERSON_AND_ORGANIZATION(#79,#76);
#70=PERSON_AND_ORGANIZATION(#79,#77);
#71=PERSON_AND_ORGANIZATION(#79,#78);
#72=ORGANIZATION(' ',' ',' ');
#73=ORGANIZATION(' ',' ',' ');
#74=ORGANIZATION(' ',' ',' ');
#75=ORGANIZATION(' ',' ',' ');
#76=ORGANIZATION(' ',' ',' ');
#77=ORGANIZATION(' ',' ',' ');
#78=ORGANIZATION(' ',' ',' ');
#79=PERSON(' ',' ',' ',(' '),$,$);
#80=SHAPE_DEFINITION_REPRESENTATION(#81,#92);
#81=PRODUCT_DEFINITION_SHAPE('','',#82);
#82=PRODUCT_DEFINITION(' ','',#84,#83);
#83=DESIGN_CONTEXT('',#91,'design');
#84=PRODUCT_DEFINITION_FORMATION_WITH_SPECIFIED_SOURCE(' ',' ',#86,
 .NOT_KNOWN.);
#85=PRODUCT_RELATED_PRODUCT_CATEGORY('detail','',(#86));
#86=PRODUCT('PML32','PML32',' ',(#89));
#87=PRODUCT_CATEGORY('part',' ');
#88=PRODUCT_CATEGORY(' ','');
#89=MECHANICAL_CONTEXT(' ',#91,'mechanical');
#90=APPLICATION_PROTOCOL_DEFINITION('international standard',
'config_control_design',2010,#91);
#91=APPLICATION_CONTEXT(
'configuration controlled 3D designs of mechanical parts and assemblie
s');
#92=SHAPE_REPRESENTATION('PML32-None',(#431),#651);
#93=MANIFOLD_SOLID_BREP('',#94);
#94=CLOSED_SHELL('',(#153,#154,#155,#156,#157,#158,#159,#160,#161,#162,
#163,#164,#165,#166,#167,#168,#169,#170));
#95=CYLINDRICAL_SURFACE('',#458,3.5);
#96=CYLINDRICAL_SURFACE('',#459,3.5);
#97=CYLINDRICAL_SURFACE('',#460,3.5);
#98=CYLINDRICAL_SURFACE('',#461,3.5);
#99=CYLINDRICAL_SURFACE('',#462,3.5);
#100=CYLINDRICAL_SURFACE('',#463,3.5);
#101=CYLINDRICAL_SURFACE('',#464,3.5);
#102=CYLINDRICAL_SURFACE('',#465,3.5);
#103=FACE_BOUND('',#197,.T.);
#104=FACE_BOUND('',#198,.T.);
#105=FACE_BOUND('',#199,.T.);
#106=FACE_BOUND('',#200,.T.);
#107=FACE_BOUND('',#201,.T.);
#108=FACE_BOUND('',#202,.T.);
#109=FACE_BOUND('',#203,.T.);
#110=FACE_BOUND('',#204,.T.);
#111=FACE_BOUND('',#205,.T.);
#112=FACE_BOUND('',#206,.T.);
#113=FACE_BOUND('',#207,.T.);
#114=FACE_BOUND('',#208,.T.);
#115=FACE_BOUND('',#209,.T.);
#116=FACE_BOUND('',#210,.T.);
#117=FACE_BOUND('',#211,.T.);
#118=FACE_BOUND('',#212,.T.);
#119=FACE_BOUND('',#213,.T.);
#120=FACE_BOUND('',#214,.T.);
#121=FACE_BOUND('',#215,.T.);
#122=FACE_BOUND('',#216,.T.);
#123=FACE_BOUND('',#217,.T.);
#124=FACE_BOUND('',#218,.T.);
#125=FACE_BOUND('',#219,.T.);
#126=FACE_BOUND('',#220,.T.);
#127=FACE_BOUND('',#221,.T.);
#128=FACE_BOUND('',#222,.T.);
#129=FACE_BOUND('',#223,.T.);
#130=FACE_BOUND('',#224,.T.);
#131=FACE_BOUND('',#225,.T.);
#132=FACE_BOUND('',#226,.T.);
#133=FACE_BOUND('',#227,.T.);
#134=FACE_BOUND('',#228,.T.);
#135=FACE_BOUND('',#229,.T.);
#136=FACE_BOUND('',#230,.T.);
#137=CIRCLE('',#440,3.5);
#138=CIRCLE('',#441,3.5);
#139=CIRCLE('',#442,3.5);
#140=CIRCLE('',#443,3.5);
#141=CIRCLE('',#444,3.5);
#142=CIRCLE('',#445,3.5);
#143=CIRCLE('',#446,3.5);
#144=CIRCLE('',#447,3.5);
#145=CIRCLE('',#449,3.5);
#146=CIRCLE('',#450,3.5);
#147=CIRCLE('',#451,3.5);
#148=CIRCLE('',#452,3.5);
#149=CIRCLE('',#453,3.5);
#150=CIRCLE('',#454,3.5);
#151=CIRCLE('',#455,3.5);
#152=CIRCLE('',#456,3.5);
#153=ADVANCED_FACE('',(#181),#171,.T.);
#154=ADVANCED_FACE('',(#182),#172,.T.);
#155=ADVANCED_FACE('',(#183),#173,.T.);
#156=ADVANCED_FACE('',(#184),#174,.T.);
#157=ADVANCED_FACE('',(#185),#175,.T.);
#158=ADVANCED_FACE('',(#186),#176,.T.);
#159=ADVANCED_FACE('',(#187),#177,.T.);
#160=ADVANCED_FACE('',(#188),#178,.T.);
#161=ADVANCED_FACE('',(#103,#104,#105,#106,#107,#108,#109,#110,#111),#179,
 .F.);
#162=ADVANCED_FACE('',(#112,#113,#114,#115,#116,#117,#118,#119,#120),#180,
 .T.);
#163=ADVANCED_FACE('',(#121,#122),#95,.F.);
#164=ADVANCED_FACE('',(#123,#124),#96,.F.);
#165=ADVANCED_FACE('',(#125,#126),#97,.F.);
#166=ADVANCED_FACE('',(#127,#128),#98,.F.);
#167=ADVANCED_FACE('',(#129,#130),#99,.F.);
#168=ADVANCED_FACE('',(#131,#132),#100,.F.);
#169=ADVANCED_FACE('',(#133,#134),#101,.F.);
#170=ADVANCED_FACE('',(#135,#136),#102,.F.);
#171=PLANE('',#432);
#172=PLANE('',#433);
#173=PLANE('',#434);
#174=PLANE('',#435);
#175=PLANE('',#436);
#176=PLANE('',#437);
#177=PLANE('',#438);
#178=PLANE('',#439);
#179=PLANE('',#448);
#180=PLANE('',#457);
#181=FACE_OUTER_BOUND('',#189,.T.);
#182=FACE_OUTER_BOUND('',#190,.T.);
#183=FACE_OUTER_BOUND('',#191,.T.);
#184=FACE_OUTER_BOUND('',#192,.T.);
#185=FACE_OUTER_BOUND('',#193,.T.);
#186=FACE_OUTER_BOUND('',#194,.T.);
#187=FACE_OUTER_BOUND('',#195,.T.);
#188=FACE_OUTER_BOUND('',#196,.T.);
#189=EDGE_LOOP('',(#231,#232,#233,#234));
#190=EDGE_LOOP('',(#235,#236,#237,#238));
#191=EDGE_LOOP('',(#239,#240,#241,#242));
#192=EDGE_LOOP('',(#243,#244,#245,#246));
#193=EDGE_LOOP('',(#247,#248,#249,#250));
#194=EDGE_LOOP('',(#251,#252,#253,#254));
#195=EDGE_LOOP('',(#255,#256,#257,#258));
#196=EDGE_LOOP('',(#259,#260,#261,#262));
#197=EDGE_LOOP('',(#263));
#198=EDGE_LOOP('',(#264));
#199=EDGE_LOOP('',(#265));
#200=EDGE_LOOP('',(#266));
#201=EDGE_LOOP('',(#267));
#202=EDGE_LOOP('',(#268));
#203=EDGE_LOOP('',(#269));
#204=EDGE_LOOP('',(#270));
#205=EDGE_LOOP('',(#271,#272,#273,#274,#275,#276,#277,#278));
#206=EDGE_LOOP('',(#279));
#207=EDGE_LOOP('',(#280));
#208=EDGE_LOOP('',(#281));
#209=EDGE_LOOP('',(#282));
#210=EDGE_LOOP('',(#283));
#211=EDGE_LOOP('',(#284));
#212=EDGE_LOOP('',(#285));
#213=EDGE_LOOP('',(#286));
#214=EDGE_LOOP('',(#287,#288,#289,#290,#291,#292,#293,#294));
#215=EDGE_LOOP('',(#295));
#216=EDGE_LOOP('',(#296));
#217=EDGE_LOOP('',(#297));
#218=EDGE_LOOP('',(#298));
#219=EDGE_LOOP('',(#299));
#220=EDGE_LOOP('',(#300));
#221=EDGE_LOOP('',(#301));
#222=EDGE_LOOP('',(#302));
#223=EDGE_LOOP('',(#303));
#224=EDGE_LOOP('',(#304));
#225=EDGE_LOOP('',(#305));
#226=EDGE_LOOP('',(#306));
#227=EDGE_LOOP('',(#307));
#228=EDGE_LOOP('',(#308));
#229=EDGE_LOOP('',(#309));
#230=EDGE_LOOP('',(#310));
#231=ORIENTED_EDGE('',*,*,#343,.F.);
#232=ORIENTED_EDGE('',*,*,#344,.F.);
#233=ORIENTED_EDGE('',*,*,#345,.T.);
#234=ORIENTED_EDGE('',*,*,#346,.T.);
#235=ORIENTED_EDGE('',*,*,#347,.F.);
#236=ORIENTED_EDGE('',*,*,#346,.F.);
#237=ORIENTED_EDGE('',*,*,#348,.T.);
#238=ORIENTED_EDGE('',*,*,#349,.T.);
#239=ORIENTED_EDGE('',*,*,#350,.F.);
#240=ORIENTED_EDGE('',*,*,#349,.F.);
#241=ORIENTED_EDGE('',*,*,#351,.T.);
#242=ORIENTED_EDGE('',*,*,#352,.T.);
#243=ORIENTED_EDGE('',*,*,#353,.F.);
#244=ORIENTED_EDGE('',*,*,#352,.F.);
#245=ORIENTED_EDGE('',*,*,#354,.T.);
#246=ORIENTED_EDGE('',*,*,#355,.T.);
#247=ORIENTED_EDGE('',*,*,#356,.F.);
#248=ORIENTED_EDGE('',*,*,#355,.F.);
#249=ORIENTED_EDGE('',*,*,#357,.T.);
#250=ORIENTED_EDGE('',*,*,#358,.T.);
#251=ORIENTED_EDGE('',*,*,#359,.F.);
#252=ORIENTED_EDGE('',*,*,#358,.F.);
#253=ORIENTED_EDGE('',*,*,#360,.T.);
#254=ORIENTED_EDGE('',*,*,#361,.T.);
#255=ORIENTED_EDGE('',*,*,#362,.F.);
#256=ORIENTED_EDGE('',*,*,#361,.F.);
#257=ORIENTED_EDGE('',*,*,#363,.T.);
#258=ORIENTED_EDGE('',*,*,#364,.T.);
#259=ORIENTED_EDGE('',*,*,#365,.F.);
#260=ORIENTED_EDGE('',*,*,#364,.F.);
#261=ORIENTED_EDGE('',*,*,#366,.T.);
#262=ORIENTED_EDGE('',*,*,#344,.T.);
#263=ORIENTED_EDGE('',*,*,#367,.T.);
#264=ORIENTED_EDGE('',*,*,#368,.F.);
#265=ORIENTED_EDGE('',*,*,#369,.T.);
#266=ORIENTED_EDGE('',*,*,#370,.F.);
#267=ORIENTED_EDGE('',*,*,#371,.T.);
#268=ORIENTED_EDGE('',*,*,#372,.F.);
#269=ORIENTED_EDGE('',*,*,#373,.T.);
#270=ORIENTED_EDGE('',*,*,#374,.F.);
#271=ORIENTED_EDGE('',*,*,#345,.F.);
#272=ORIENTED_EDGE('',*,*,#366,.F.);
#273=ORIENTED_EDGE('',*,*,#363,.F.);
#274=ORIENTED_EDGE('',*,*,#360,.F.);
#275=ORIENTED_EDGE('',*,*,#357,.F.);
#276=ORIENTED_EDGE('',*,*,#354,.F.);
#277=ORIENTED_EDGE('',*,*,#351,.F.);
#278=ORIENTED_EDGE('',*,*,#348,.F.);
#279=ORIENTED_EDGE('',*,*,#375,.T.);
#280=ORIENTED_EDGE('',*,*,#376,.T.);
#281=ORIENTED_EDGE('',*,*,#377,.T.);
#282=ORIENTED_EDGE('',*,*,#378,.T.);
#283=ORIENTED_EDGE('',*,*,#379,.T.);
#284=ORIENTED_EDGE('',*,*,#380,.T.);
#285=ORIENTED_EDGE('',*,*,#381,.T.);
#286=ORIENTED_EDGE('',*,*,#382,.T.);
#287=ORIENTED_EDGE('',*,*,#343,.T.);
#288=ORIENTED_EDGE('',*,*,#347,.T.);
#289=ORIENTED_EDGE('',*,*,#350,.T.);
#290=ORIENTED_EDGE('',*,*,#353,.T.);
#291=ORIENTED_EDGE('',*,*,#356,.T.);
#292=ORIENTED_EDGE('',*,*,#359,.T.);
#293=ORIENTED_EDGE('',*,*,#362,.T.);
#294=ORIENTED_EDGE('',*,*,#365,.T.);
#295=ORIENTED_EDGE('',*,*,#382,.F.);
#296=ORIENTED_EDGE('',*,*,#374,.T.);
#297=ORIENTED_EDGE('',*,*,#381,.F.);
#298=ORIENTED_EDGE('',*,*,#373,.F.);
#299=ORIENTED_EDGE('',*,*,#380,.F.);
#300=ORIENTED_EDGE('',*,*,#372,.T.);
#301=ORIENTED_EDGE('',*,*,#379,.F.);
#302=ORIENTED_EDGE('',*,*,#371,.F.);
#303=ORIENTED_EDGE('',*,*,#378,.F.);
#304=ORIENTED_EDGE('',*,*,#370,.T.);
#305=ORIENTED_EDGE('',*,*,#377,.F.);
#306=ORIENTED_EDGE('',*,*,#369,.F.);
#307=ORIENTED_EDGE('',*,*,#376,.F.);
#308=ORIENTED_EDGE('',*,*,#368,.T.);
#309=ORIENTED_EDGE('',*,*,#375,.F.);
#310=ORIENTED_EDGE('',*,*,#367,.F.);
#311=VERTEX_POINT('',#562);
#312=VERTEX_POINT('',#563);
#313=VERTEX_POINT('',#565);
#314=VERTEX_POINT('',#567);
#315=VERTEX_POINT('',#571);
#316=VERTEX_POINT('',#573);
#317=VERTEX_POINT('',#577);
#318=VERTEX_POINT('',#579);
#319=VERTEX_POINT('',#583);
#320=VERTEX_POINT('',#585);
#321=VERTEX_POINT('',#589);
#322=VERTEX_POINT('',#591);
#323=VERTEX_POINT('',#595);
#324=VERTEX_POINT('',#597);
#325=VERTEX_POINT('',#601);
#326=VERTEX_POINT('',#603);
#327=VERTEX_POINT('',#610);
#328=VERTEX_POINT('',#612);
#329=VERTEX_POINT('',#614);
#330=VERTEX_POINT('',#616);
#331=VERTEX_POINT('',#618);
#332=VERTEX_POINT('',#620);
#333=VERTEX_POINT('',#622);
#334=VERTEX_POINT('',#624);
#335=VERTEX_POINT('',#627);
#336=VERTEX_POINT('',#629);
#337=VERTEX_POINT('',#631);
#338=VERTEX_POINT('',#633);
#339=VERTEX_POINT('',#635);
#340=VERTEX_POINT('',#637);
#341=VERTEX_POINT('',#639);
#342=VERTEX_POINT('',#641);
#343=EDGE_CURVE('',#311,#312,#383,.T.);
#344=EDGE_CURVE('',#313,#311,#384,.T.);
#345=EDGE_CURVE('',#313,#314,#385,.T.);
#346=EDGE_CURVE('',#314,#312,#386,.T.);
#347=EDGE_CURVE('',#312,#315,#387,.T.);
#348=EDGE_CURVE('',#314,#316,#388,.T.);
#349=EDGE_CURVE('',#316,#315,#389,.T.);
#350=EDGE_CURVE('',#315,#317,#390,.T.);
#351=EDGE_CURVE('',#316,#318,#391,.T.);
#352=EDGE_CURVE('',#318,#317,#392,.T.);
#353=EDGE_CURVE('',#317,#319,#393,.T.);
#354=EDGE_CURVE('',#318,#320,#394,.T.);
#355=EDGE_CURVE('',#320,#319,#395,.T.);
#356=EDGE_CURVE('',#319,#321,#396,.T.);
#357=EDGE_CURVE('',#320,#322,#397,.T.);
#358=EDGE_CURVE('',#322,#321,#398,.T.);
#359=EDGE_CURVE('',#321,#323,#399,.T.);
#360=EDGE_CURVE('',#322,#324,#400,.T.);
#361=EDGE_CURVE('',#324,#323,#401,.T.);
#362=EDGE_CURVE('',#323,#325,#402,.T.);
#363=EDGE_CURVE('',#324,#326,#403,.T.);
#364=EDGE_CURVE('',#326,#325,#404,.T.);
#365=EDGE_CURVE('',#325,#311,#405,.T.);
#366=EDGE_CURVE('',#326,#313,#406,.T.);
#367=EDGE_CURVE('',#327,#327,#137,.T.);
#368=EDGE_CURVE('',#328,#328,#138,.T.);
#369=EDGE_CURVE('',#329,#329,#139,.T.);
#370=EDGE_CURVE('',#330,#330,#140,.T.);
#371=EDGE_CURVE('',#331,#331,#141,.T.);
#372=EDGE_CURVE('',#332,#332,#142,.T.);
#373=EDGE_CURVE('',#333,#333,#143,.T.);
#374=EDGE_CURVE('',#334,#334,#144,.T.);
#375=EDGE_CURVE('',#335,#335,#145,.T.);
#376=EDGE_CURVE('',#336,#336,#146,.T.);
#377=EDGE_CURVE('',#337,#337,#147,.T.);
#378=EDGE_CURVE('',#338,#338,#148,.T.);
#379=EDGE_CURVE('',#339,#339,#149,.T.);
#380=EDGE_CURVE('',#340,#340,#150,.T.);
#381=EDGE_CURVE('',#341,#341,#151,.T.);
#382=EDGE_CURVE('',#342,#342,#152,.T.);
#383=LINE('',#561,#407);
#384=LINE('',#564,#408);
#385=LINE('',#566,#409);
#386=LINE('',#568,#410);
#387=LINE('',#570,#411);
#388=LINE('',#572,#412);
#389=LINE('',#574,#413);
#390=LINE('',#576,#414);
#391=LINE('',#578,#415);
#392=LINE('',#580,#416);
#393=LINE('',#582,#417);
#394=LINE('',#584,#418);
#395=LINE('',#586,#419);
#396=LINE('',#588,#420);
#397=LINE('',#590,#421);
#398=LINE('',#592,#422);
#399=LINE('',#594,#423);
#400=LINE('',#596,#424);
#401=LINE('',#598,#425);
#402=LINE('',#600,#426);
#403=LINE('',#602,#427);
#404=LINE('',#604,#428);
#405=LINE('',#606,#429);
#406=LINE('',#607,#430);
#407=VECTOR('',#468,1.);
#408=VECTOR('',#469,1.);
#409=VECTOR('',#470,1.);
#410=VECTOR('',#471,1.);
#411=VECTOR('',#474,1.);
#412=VECTOR('',#475,1.);
#413=VECTOR('',#476,1.);
#414=VECTOR('',#479,1.);
#415=VECTOR('',#480,1.);
#416=VECTOR('',#481,1.);
#417=VECTOR('',#484,1.);
#418=VECTOR('',#485,1.);
#419=VECTOR('',#486,1.);
#420=VECTOR('',#489,1.);
#421=VECTOR('',#490,1.);
#422=VECTOR('',#491,1.);
#423=VECTOR('',#494,1.);
#424=VECTOR('',#495,1.);
#425=VECTOR('',#496,1.);
#426=VECTOR('',#499,1.);
#427=VECTOR('',#500,1.);
#428=VECTOR('',#501,1.);
#429=VECTOR('',#504,1.);
#430=VECTOR('',#505,1.);
#431=AXIS2_PLACEMENT_3D('',#560,#466,#467);
#432=AXIS2_PLACEMENT_3D('',#569,#472,#473);
#433=AXIS2_PLACEMENT_3D('',#575,#477,#478);
#434=AXIS2_PLACEMENT_3D('',#581,#482,#483);
#435=AXIS2_PLACEMENT_3D('',#587,#487,#488);
#436=AXIS2_PLACEMENT_3D('',#593,#492,#493);
#437=AXIS2_PLACEMENT_3D('',#599,#497,#498);
#438=AXIS2_PLACEMENT_3D('',#605,#502,#503);
#439=AXIS2_PLACEMENT_3D('',#608,#506,#507);
#440=AXIS2_PLACEMENT_3D('',#609,#508,#509);
#441=AXIS2_PLACEMENT_3D('',#611,#510,#511);
#442=AXIS2_PLACEMENT_3D('',#613,#512,#513);
#443=AXIS2_PLACEMENT_3D('',#615,#514,#515);
#444=AXIS2_PLACEMENT_3D('',#617,#516,#517);
#445=AXIS2_PLACEMENT_3D('',#619,#518,#519);
#446=AXIS2_PLACEMENT_3D('',#621,#520,#521);
#447=AXIS2_PLACEMENT_3D('',#623,#522,#523);
#448=AXIS2_PLACEMENT_3D('',#625,#524,#525);
#449=AXIS2_PLACEMENT_3D('',#626,#526,#527);
#450=AXIS2_PLACEMENT_3D('',#628,#528,#529);
#451=AXIS2_PLACEMENT_3D('',#630,#530,#531);
#452=AXIS2_PLACEMENT_3D('',#632,#532,#533);
#453=AXIS2_PLACEMENT_3D('',#634,#534,#535);
#454=AXIS2_PLACEMENT_3D('',#636,#536,#537);
#455=AXIS2_PLACEMENT_3D('',#638,#538,#539);
#456=AXIS2_PLACEMENT_3D('',#640,#540,#541);
#457=AXIS2_PLACEMENT_3D('',#642,#542,#543);
#458=AXIS2_PLACEMENT_3D('',#643,#544,#545);
#459=AXIS2_PLACEMENT_3D('',#644,#546,#547);
#460=AXIS2_PLACEMENT_3D('',#645,#548,#549);
#461=AXIS2_PLACEMENT_3D('',#646,#550,#551);
#462=AXIS2_PLACEMENT_3D('',#647,#552,#553);
#463=AXIS2_PLACEMENT_3D('',#648,#554,#555);
#464=AXIS2_PLACEMENT_3D('',#649,#556,#557);
#465=AXIS2_PLACEMENT_3D('',#650,#558,#559);
#466=DIRECTION('',(0.,0.,1.));
#467=DIRECTION('',(1.,0.,0.));
#468=DIRECTION('',(-4.58444817219338E-016,1.,0.));
#469=DIRECTION('',(0.,0.,-1.));
#470=DIRECTION('',(-4.58444817219338E-016,1.,0.));
#471=DIRECTION('',(0.,0.,-1.));
#472=DIRECTION('',(-1.,-4.58444817219338E-016,0.));
#473=DIRECTION('',(4.44089209850063E-016,-1.,0.));
#474=DIRECTION('',(0.707106781186561,0.707106781186534,0.));
#475=DIRECTION('',(0.707106781186561,0.707106781186534,0.));
#476=DIRECTION('',(0.,0.,-1.));
#477=DIRECTION('',(-0.707106781186534,0.707106781186561,0.));
#478=DIRECTION('',(-0.707106781186561,-0.707106781186534,0.));
#479=DIRECTION('',(1.,3.64793175114017E-016,0.));
#480=DIRECTION('',(1.,3.64793175114017E-016,0.));
#481=DIRECTION('',(0.,0.,-1.));
#482=DIRECTION('',(-3.64793175114017E-016,1.,0.));
#483=DIRECTION('',(-1.,-3.33066907387547E-016,0.));
#484=DIRECTION('',(0.707106781186537,-0.707106781186558,0.));
#485=DIRECTION('',(0.707106781186537,-0.707106781186558,0.));
#486=DIRECTION('',(0.,0.,-1.));
#487=DIRECTION('',(0.707106781186558,0.707106781186537,0.));
#488=DIRECTION('',(-0.707106781186537,0.707106781186558,0.));
#489=DIRECTION('',(2.2922240860967E-016,-1.,0.));
#490=DIRECTION('',(2.2922240860967E-016,-1.,0.));
#491=DIRECTION('',(0.,0.,-1.));
#492=DIRECTION('',(1.,2.2922240860967E-016,0.));
#493=DIRECTION('',(-2.22044604925031E-016,1.,0.));
#494=DIRECTION('',(-0.707106781186543,-0.707106781186552,0.));
#495=DIRECTION('',(-0.707106781186543,-0.707106781186552,0.));
#496=DIRECTION('',(0.,0.,-1.));
#497=DIRECTION('',(0.707106781186552,-0.707106781186543,0.));
#498=DIRECTION('',(0.707106781186543,0.707106781186552,0.));
#499=DIRECTION('',(-1.,-4.40031767481283E-015,0.));
#500=DIRECTION('',(-1.,-4.40031767481283E-015,0.));
#501=DIRECTION('',(0.,0.,-1.));
#502=DIRECTION('',(4.40031767481283E-015,-1.,0.));
#503=DIRECTION('',(1.,4.40099345855316E-015,0.));
#504=DIRECTION('',(-0.707106781186554,0.707106781186541,0.));
#505=DIRECTION('',(-0.707106781186554,0.707106781186541,0.));
#506=DIRECTION('',(-0.707106781186541,-0.707106781186554,0.));
#507=DIRECTION('',(0.707106781186554,-0.707106781186541,0.));
#508=DIRECTION('',(0.,0.,-1.));
#509=DIRECTION('',(-1.,0.,0.));
#510=DIRECTION('',(0.,0.,1.));
#511=DIRECTION('',(-1.,0.,0.));
#512=DIRECTION('',(0.,0.,-1.));
#513=DIRECTION('',(-1.,0.,0.));
#514=DIRECTION('',(0.,0.,1.));
#515=DIRECTION('',(-1.,0.,0.));
#516=DIRECTION('',(0.,0.,-1.));
#517=DIRECTION('',(-1.,0.,0.));
#518=DIRECTION('',(0.,0.,1.));
#519=DIRECTION('',(-1.,0.,0.));
#520=DIRECTION('',(0.,0.,-1.));
#521=DIRECTION('',(-1.,0.,0.));
#522=DIRECTION('',(0.,0.,1.));
#523=DIRECTION('',(-1.,0.,0.));
#524=DIRECTION('',(0.,0.,-1.));
#525=DIRECTION('',(-1.,0.,0.));
#526=DIRECTION('',(0.,0.,1.));
#527=DIRECTION('',(-1.,0.,0.));
#528=DIRECTION('',(0.,0.,1.));
#529=DIRECTION('',(-1.,0.,0.));
#530=DIRECTION('',(0.,0.,1.));
#531=DIRECTION('',(-1.,0.,0.));
#532=DIRECTION('',(0.,0.,1.));
#533=DIRECTION('',(-1.,0.,0.));
#534=DIRECTION('',(0.,0.,1.));
#535=DIRECTION('',(-1.,0.,0.));
#536=DIRECTION('',(0.,0.,1.));
#537=DIRECTION('',(-1.,0.,0.));
#538=DIRECTION('',(0.,0.,1.));
#539=DIRECTION('',(-1.,0.,0.));
#540=DIRECTION('',(0.,0.,1.));
#541=DIRECTION('',(-1.,0.,0.));
#542=DIRECTION('',(0.,0.,-1.));
#543=DIRECTION('',(-1.,0.,0.));
#544=DIRECTION('',(0.,0.,1.));
#545=DIRECTION('',(1.,0.,0.));
#546=DIRECTION('',(0.,0.,1.));
#547=DIRECTION('',(1.,0.,0.));
#548=DIRECTION('',(0.,0.,1.));
#549=DIRECTION('',(1.,0.,0.));
#550=DIRECTION('',(0.,0.,1.));
#551=DIRECTION('',(1.,0.,0.));
#552=DIRECTION('',(0.,0.,1.));
#553=DIRECTION('',(1.,0.,0.));
#554=DIRECTION('',(0.,0.,1.));
#555=DIRECTION('',(1.,0.,0.));
#556=DIRECTION('',(0.,0.,1.));
#557=DIRECTION('',(1.,0.,0.));
#558=DIRECTION('',(0.,0.,1.));
#559=DIRECTION('',(1.,0.,0.));
#560=CARTESIAN_POINT('',(0.,0.,0.));
#561=CARTESIAN_POINT('',(-485.825376476905,13.9171011694908,0.));
#562=CARTESIAN_POINT('',(-485.825376476905,13.9171011694908,0.));
#563=CARTESIAN_POINT('',(-485.825376476905,498.26024692,0.));
#564=CARTESIAN_POINT('',(-485.825376476905,13.9171011694908,2.));
#565=CARTESIAN_POINT('',(-485.825376476905,13.9171011694908,2.));
#566=CARTESIAN_POINT('',(-485.825376476905,13.9171011694908,2.));
#567=CARTESIAN_POINT('',(-485.825376476905,498.26024692,2.));
#568=CARTESIAN_POINT('',(-485.825376476905,498.26024692,2.));
#569=CARTESIAN_POINT('',(-485.825376476905,13.9171011694908,2.));
#570=CARTESIAN_POINT('',(-485.825376476905,498.26024692,0.));
#571=CARTESIAN_POINT('',(-482.996949352159,501.088674044746,0.));
#572=CARTESIAN_POINT('',(-485.825376476905,498.26024692,2.));
#573=CARTESIAN_POINT('',(-482.996949352159,501.088674044746,2.));
#574=CARTESIAN_POINT('',(-482.996949352159,501.088674044746,2.));
#575=CARTESIAN_POINT('',(-485.825376476905,498.26024692,2.));
#576=CARTESIAN_POINT('',(-482.996949352159,501.088674044746,0.));
#577=CARTESIAN_POINT('',(-178.653803601651,501.088674044746,0.));
#578=CARTESIAN_POINT('',(-482.996949352159,501.088674044746,2.));
#579=CARTESIAN_POINT('',(-178.653803601651,501.088674044746,2.));
#580=CARTESIAN_POINT('',(-178.653803601651,501.088674044746,2.));
#581=CARTESIAN_POINT('',(-482.996949352159,501.088674044746,2.));
#582=CARTESIAN_POINT('',(-178.653803601651,501.088674044746,0.));
#583=CARTESIAN_POINT('',(-175.825376476905,498.26024692,0.));
#584=CARTESIAN_POINT('',(-178.653803601651,501.088674044746,2.));
#585=CARTESIAN_POINT('',(-175.825376476905,498.26024692,2.));
#586=CARTESIAN_POINT('',(-175.825376476905,498.26024692,2.));
#587=CARTESIAN_POINT('',(-178.653803601651,501.088674044746,2.));
#588=CARTESIAN_POINT('',(-175.825376476905,498.26024692,0.));
#589=CARTESIAN_POINT('',(-175.825376476905,13.9171011694922,0.));
#590=CARTESIAN_POINT('',(-175.825376476905,498.26024692,2.));
#591=CARTESIAN_POINT('',(-175.825376476905,13.9171011694922,2.));
#592=CARTESIAN_POINT('',(-175.825376476905,13.9171011694922,2.));
#593=CARTESIAN_POINT('',(-175.825376476905,498.26024692,2.));
#594=CARTESIAN_POINT('',(-175.825376476905,13.9171011694922,0.));
#595=CARTESIAN_POINT('',(-178.653803601651,11.0886740447459,0.));
#596=CARTESIAN_POINT('',(-175.825376476905,13.9171011694922,2.));
#597=CARTESIAN_POINT('',(-178.653803601651,11.0886740447459,2.));
#598=CARTESIAN_POINT('',(-178.653803601651,11.0886740447459,2.));
#599=CARTESIAN_POINT('',(-175.825376476905,13.9171011694922,2.));
#600=CARTESIAN_POINT('',(-178.653803601651,11.0886740447459,0.));
#601=CARTESIAN_POINT('',(-482.996949352158,11.0886740447446,0.));
#602=CARTESIAN_POINT('',(-178.653803601651,11.0886740447459,2.));
#603=CARTESIAN_POINT('',(-482.996949352158,11.0886740447446,2.));
#604=CARTESIAN_POINT('',(-482.996949352158,11.0886740447446,2.));
#605=CARTESIAN_POINT('',(-178.653803601651,11.0886740447459,2.));
#606=CARTESIAN_POINT('',(-482.996949352158,11.0886740447446,0.));
#607=CARTESIAN_POINT('',(-482.996949352158,11.0886740447446,2.));
#608=CARTESIAN_POINT('',(-482.996949352158,11.0886740447446,2.));
#609=CARTESIAN_POINT('',(-185.325376476905,491.088674044746,2.));
#610=CARTESIAN_POINT('',(-188.825376476905,491.088674044746,2.));
#611=CARTESIAN_POINT('',(-185.325376476905,221.088674044746,2.));
#612=CARTESIAN_POINT('',(-188.825376476905,221.088674044746,2.));
#613=CARTESIAN_POINT('',(-476.325376476905,491.088674044746,2.));
#614=CARTESIAN_POINT('',(-479.825376476905,491.088674044746,2.));
#615=CARTESIAN_POINT('',(-476.325376476905,211.088674044745,2.));
#616=CARTESIAN_POINT('',(-479.825376476905,211.088674044745,2.));
#617=CARTESIAN_POINT('',(-476.325376476905,21.0886740447446,2.));
#618=CARTESIAN_POINT('',(-479.825376476905,21.0886740447446,2.));
#619=CARTESIAN_POINT('',(-476.325376476905,291.088674044746,2.));
#620=CARTESIAN_POINT('',(-479.825376476905,291.088674044746,2.));
#621=CARTESIAN_POINT('',(-185.325376476905,21.0886740447459,2.));
#622=CARTESIAN_POINT('',(-188.825376476905,21.0886740447459,2.));
#623=CARTESIAN_POINT('',(-185.325376476905,291.088674044746,2.));
#624=CARTESIAN_POINT('',(-188.825376476905,291.088674044746,2.));
#625=CARTESIAN_POINT('',(0.,0.,2.));
#626=CARTESIAN_POINT('',(-185.325376476905,491.088674044746,0.));
#627=CARTESIAN_POINT('',(-188.825376476905,491.088674044746,0.));
#628=CARTESIAN_POINT('',(-185.325376476905,221.088674044746,0.));
#629=CARTESIAN_POINT('',(-188.825376476905,221.088674044746,0.));
#630=CARTESIAN_POINT('',(-476.325376476905,491.088674044746,0.));
#631=CARTESIAN_POINT('',(-479.825376476905,491.088674044746,0.));
#632=CARTESIAN_POINT('',(-476.325376476905,211.088674044745,0.));
#633=CARTESIAN_POINT('',(-479.825376476905,211.088674044745,0.));
#634=CARTESIAN_POINT('',(-476.325376476905,21.0886740447446,0.));
#635=CARTESIAN_POINT('',(-479.825376476905,21.0886740447446,0.));
#636=CARTESIAN_POINT('',(-476.325376476905,291.088674044746,0.));
#637=CARTESIAN_POINT('',(-479.825376476905,291.088674044746,0.));
#638=CARTESIAN_POINT('',(-185.325376476905,21.0886740447459,0.));
#639=CARTESIAN_POINT('',(-188.825376476905,21.0886740447459,0.));
#640=CARTESIAN_POINT('',(-185.325376476905,291.088674044746,0.));
#641=CARTESIAN_POINT('',(-188.825376476905,291.088674044746,0.));
#642=CARTESIAN_POINT('',(0.,0.,0.));
#643=CARTESIAN_POINT('',(-185.325376476905,291.088674044746,-10.));
#644=CARTESIAN_POINT('',(-185.325376476905,21.0886740447459,-10.));
#645=CARTESIAN_POINT('',(-476.325376476905,291.088674044746,-10.));
#646=CARTESIAN_POINT('',(-476.325376476905,21.0886740447446,-10.));
#647=CARTESIAN_POINT('',(-476.325376476905,211.088674044745,-10.));
#648=CARTESIAN_POINT('',(-476.325376476905,491.088674044746,-10.));
#649=CARTESIAN_POINT('',(-185.325376476905,221.088674044746,-10.));
#650=CARTESIAN_POINT('',(-185.325376476905,491.088674044746,-10.));
#651=(
GEOMETRIC_REPRESENTATION_CONTEXT(3)
GLOBAL_UNCERTAINTY_ASSIGNED_CONTEXT((#652))
GLOBAL_UNIT_ASSIGNED_CONTEXT((#658,#654,#653))
REPRESENTATION_CONTEXT('PML63','TOP_LEVEL_ASSEMBLY_PART')
);
#652=UNCERTAINTY_MEASURE_WITH_UNIT(LENGTH_MEASURE(2.E-005),#658,
'DISTANCE_ACCURACY_VALUE','Maximum Tolerance applied to model');
#653=(
NAMED_UNIT(*)
SI_UNIT($,.STERADIAN.)
SOLID_ANGLE_UNIT()
);
#654=(
CONVERSION_BASED_UNIT('DEGREE',#656)
NAMED_UNIT(#655)
PLANE_ANGLE_UNIT()
);
#655=DIMENSIONAL_EXPONENTS(0.,0.,0.,0.,0.,0.,0.);
#656=PLANE_ANGLE_MEASURE_WITH_UNIT(PLANE_ANGLE_MEASURE(0.0174532925),#657);
#657=(
NAMED_UNIT(*)
PLANE_ANGLE_UNIT()
SI_UNIT($,.RADIAN.)
);
#658=(
LENGTH_UNIT()
NAMED_UNIT(*)
SI_UNIT(.MILLI.,.METRE.)
);
ENDSEC;
END-ISO-10303-21;
