ISO-10303-21;
HEADER;
/* Generated by software containing ST-Developer
 * from STEP Tools, Inc. (www.steptools.com) 
 */
/* OPTION: using custom schema-name function */

FILE_DESCRIPTION(
/* description */ (''),
/* implementation_level */ '2;1');

FILE_NAME(
/* name */ 'PML32.stp',
/* time_stamp */ '2017-09-06T09:16:07+02:00',
/* author */ (''),
/* organization */ (''),
/* preprocessor_version */ 'ST-DEVELOPER v15',
/* originating_system */ 'SIEMENS PLM Software NX 9.0',
/* authorisation */ '');

FILE_SCHEMA (('CONFIG_CONTROL_DESIGN'));
ENDSEC;

DATA;
#10=SHAPE_REPRESENTATION_RELATIONSHIP('None',
'relationship between PML32-None and PML32-None',#92,#11);
#11=ADVANCED_BREP_SHAPE_REPRESENTATION('PML32-None',(#93),#515);
#12=CC_DESIGN_APPROVAL(#24,(#82));
#13=CC_DESIGN_APPROVAL(#25,(#84));
#14=CC_DESIGN_APPROVAL(#26,(#31));
#15=APPROVAL_PERSON_ORGANIZATION(#69,#24,#18);
#16=APPROVAL_PERSON_ORGANIZATION(#70,#25,#19);
#17=APPROVAL_PERSON_ORGANIZATION(#71,#26,#20);
#18=APPROVAL_ROLE('approver');
#19=APPROVAL_ROLE('approver');
#20=APPROVAL_ROLE('approver');
#21=APPROVAL_DATE_TIME(#39,#24);
#22=APPROVAL_DATE_TIME(#40,#25);
#23=APPROVAL_DATE_TIME(#41,#26);
#24=APPROVAL(#27,' ');
#25=APPROVAL(#28,' ');
#26=APPROVAL(#29,' ');
#27=APPROVAL_STATUS('not_yet_approved');
#28=APPROVAL_STATUS('not_yet_approved');
#29=APPROVAL_STATUS('not_yet_approved');
#30=CC_DESIGN_SECURITY_CLASSIFICATION(#31,(#84));
#31=SECURITY_CLASSIFICATION(' ',' ',#32);
#32=SECURITY_CLASSIFICATION_LEVEL('confidential');
#33=CC_DESIGN_DATE_AND_TIME_ASSIGNMENT(#37,#35,(#82));
#34=CC_DESIGN_DATE_AND_TIME_ASSIGNMENT(#38,#36,(#31));
#35=DATE_TIME_ROLE('creation_date');
#36=DATE_TIME_ROLE('classification_date');
#37=DATE_AND_TIME(#52,#42);
#38=DATE_AND_TIME(#53,#43);
#39=DATE_AND_TIME(#54,#44);
#40=DATE_AND_TIME(#55,#45);
#41=DATE_AND_TIME(#56,#46);
#42=LOCAL_TIME(0,0,0.,#47);
#43=LOCAL_TIME(0,0,0.,#48);
#44=LOCAL_TIME(0,0,0.,#49);
#45=LOCAL_TIME(0,0,0.,#50);
#46=LOCAL_TIME(0,0,0.,#51);
#47=COORDINATED_UNIVERSAL_TIME_OFFSET(0,0,.BEHIND.);
#48=COORDINATED_UNIVERSAL_TIME_OFFSET(0,0,.BEHIND.);
#49=COORDINATED_UNIVERSAL_TIME_OFFSET(0,0,.BEHIND.);
#50=COORDINATED_UNIVERSAL_TIME_OFFSET(0,0,.BEHIND.);
#51=COORDINATED_UNIVERSAL_TIME_OFFSET(0,0,.BEHIND.);
#52=CALENDAR_DATE(0,1,1);
#53=CALENDAR_DATE(0,1,1);
#54=CALENDAR_DATE(0,1,1);
#55=CALENDAR_DATE(0,1,1);
#56=CALENDAR_DATE(0,1,1);
#57=CC_DESIGN_PERSON_AND_ORGANIZATION_ASSIGNMENT(#65,#61,(#82,#84));
#58=CC_DESIGN_PERSON_AND_ORGANIZATION_ASSIGNMENT(#66,#62,(#86));
#59=CC_DESIGN_PERSON_AND_ORGANIZATION_ASSIGNMENT(#67,#63,(#84));
#60=CC_DESIGN_PERSON_AND_ORGANIZATION_ASSIGNMENT(#68,#64,(#31));
#61=PERSON_AND_ORGANIZATION_ROLE('creator');
#62=PERSON_AND_ORGANIZATION_ROLE('design_owner');
#63=PERSON_AND_ORGANIZATION_ROLE('design_supplier');
#64=PERSON_AND_ORGANIZATION_ROLE('classification_officer');
#65=PERSON_AND_ORGANIZATION(#79,#72);
#66=PERSON_AND_ORGANIZATION(#79,#73);
#67=PERSON_AND_ORGANIZATION(#79,#74);
#68=PERSON_AND_ORGANIZATION(#79,#75);
#69=PERSON_AND_ORGANIZATION(#79,#76);
#70=PERSON_AND_ORGANIZATION(#79,#77);
#71=PERSON_AND_ORGANIZATION(#79,#78);
#72=ORGANIZATION(' ',' ',' ');
#73=ORGANIZATION(' ',' ',' ');
#74=ORGANIZATION(' ',' ',' ');
#75=ORGANIZATION(' ',' ',' ');
#76=ORGANIZATION(' ',' ',' ');
#77=ORGANIZATION(' ',' ',' ');
#78=ORGANIZATION(' ',' ',' ');
#79=PERSON(' ',' ',' ',(' '),$,$);
#80=SHAPE_DEFINITION_REPRESENTATION(#81,#92);
#81=PRODUCT_DEFINITION_SHAPE('','',#82);
#82=PRODUCT_DEFINITION(' ','',#84,#83);
#83=DESIGN_CONTEXT('',#91,'design');
#84=PRODUCT_DEFINITION_FORMATION_WITH_SPECIFIED_SOURCE(' ',' ',#86,
 .NOT_KNOWN.);
#85=PRODUCT_RELATED_PRODUCT_CATEGORY('detail','',(#86));
#86=PRODUCT('PML32','PML32',' ',(#89));
#87=PRODUCT_CATEGORY('part',' ');
#88=PRODUCT_CATEGORY(' ','');
#89=MECHANICAL_CONTEXT(' ',#91,'mechanical');
#90=APPLICATION_PROTOCOL_DEFINITION('international standard',
'config_control_design',2010,#91);
#91=APPLICATION_CONTEXT(
'configuration controlled 3D designs of mechanical parts and assemblie
s');
#92=SHAPE_REPRESENTATION('PML32-None',(#351),#515);
#93=MANIFOLD_SOLID_BREP('',#94);
#94=CLOSED_SHELL('',(#125,#126,#127,#128,#129,#130,#131,#132,#133,#134,
#135,#136,#137,#138));
#95=CYLINDRICAL_SURFACE('',#370,3.5);
#96=CYLINDRICAL_SURFACE('',#371,3.5);
#97=CYLINDRICAL_SURFACE('',#372,3.5);
#98=CYLINDRICAL_SURFACE('',#373,3.5);
#99=FACE_BOUND('',#165,.T.);
#100=FACE_BOUND('',#166,.T.);
#101=FACE_BOUND('',#167,.T.);
#102=FACE_BOUND('',#168,.T.);
#103=FACE_BOUND('',#169,.T.);
#104=FACE_BOUND('',#170,.T.);
#105=FACE_BOUND('',#171,.T.);
#106=FACE_BOUND('',#172,.T.);
#107=FACE_BOUND('',#173,.T.);
#108=FACE_BOUND('',#174,.T.);
#109=FACE_BOUND('',#175,.T.);
#110=FACE_BOUND('',#176,.T.);
#111=FACE_BOUND('',#177,.T.);
#112=FACE_BOUND('',#178,.T.);
#113=FACE_BOUND('',#179,.T.);
#114=FACE_BOUND('',#180,.T.);
#115=FACE_BOUND('',#181,.T.);
#116=FACE_BOUND('',#182,.T.);
#117=CIRCLE('',#360,3.5);
#118=CIRCLE('',#361,3.5);
#119=CIRCLE('',#362,3.5);
#120=CIRCLE('',#363,3.5);
#121=CIRCLE('',#365,3.5);
#122=CIRCLE('',#366,3.5);
#123=CIRCLE('',#367,3.5);
#124=CIRCLE('',#368,3.5);
#125=ADVANCED_FACE('',(#149),#139,.T.);
#126=ADVANCED_FACE('',(#150),#140,.T.);
#127=ADVANCED_FACE('',(#151),#141,.T.);
#128=ADVANCED_FACE('',(#152),#142,.T.);
#129=ADVANCED_FACE('',(#153),#143,.T.);
#130=ADVANCED_FACE('',(#154),#144,.T.);
#131=ADVANCED_FACE('',(#155),#145,.T.);
#132=ADVANCED_FACE('',(#156),#146,.T.);
#133=ADVANCED_FACE('',(#99,#100,#101,#102,#103),#147,.F.);
#134=ADVANCED_FACE('',(#104,#105,#106,#107,#108),#148,.T.);
#135=ADVANCED_FACE('',(#109,#110),#95,.F.);
#136=ADVANCED_FACE('',(#111,#112),#96,.F.);
#137=ADVANCED_FACE('',(#113,#114),#97,.F.);
#138=ADVANCED_FACE('',(#115,#116),#98,.F.);
#139=PLANE('',#352);
#140=PLANE('',#353);
#141=PLANE('',#354);
#142=PLANE('',#355);
#143=PLANE('',#356);
#144=PLANE('',#357);
#145=PLANE('',#358);
#146=PLANE('',#359);
#147=PLANE('',#364);
#148=PLANE('',#369);
#149=FACE_OUTER_BOUND('',#157,.T.);
#150=FACE_OUTER_BOUND('',#158,.T.);
#151=FACE_OUTER_BOUND('',#159,.T.);
#152=FACE_OUTER_BOUND('',#160,.T.);
#153=FACE_OUTER_BOUND('',#161,.T.);
#154=FACE_OUTER_BOUND('',#162,.T.);
#155=FACE_OUTER_BOUND('',#163,.T.);
#156=FACE_OUTER_BOUND('',#164,.T.);
#157=EDGE_LOOP('',(#183,#184,#185,#186));
#158=EDGE_LOOP('',(#187,#188,#189,#190));
#159=EDGE_LOOP('',(#191,#192,#193,#194));
#160=EDGE_LOOP('',(#195,#196,#197,#198));
#161=EDGE_LOOP('',(#199,#200,#201,#202));
#162=EDGE_LOOP('',(#203,#204,#205,#206));
#163=EDGE_LOOP('',(#207,#208,#209,#210));
#164=EDGE_LOOP('',(#211,#212,#213,#214));
#165=EDGE_LOOP('',(#215));
#166=EDGE_LOOP('',(#216));
#167=EDGE_LOOP('',(#217));
#168=EDGE_LOOP('',(#218));
#169=EDGE_LOOP('',(#219,#220,#221,#222,#223,#224,#225,#226));
#170=EDGE_LOOP('',(#227));
#171=EDGE_LOOP('',(#228));
#172=EDGE_LOOP('',(#229));
#173=EDGE_LOOP('',(#230));
#174=EDGE_LOOP('',(#231,#232,#233,#234,#235,#236,#237,#238));
#175=EDGE_LOOP('',(#239));
#176=EDGE_LOOP('',(#240));
#177=EDGE_LOOP('',(#241));
#178=EDGE_LOOP('',(#242));
#179=EDGE_LOOP('',(#243));
#180=EDGE_LOOP('',(#244));
#181=EDGE_LOOP('',(#245));
#182=EDGE_LOOP('',(#246));
#183=ORIENTED_EDGE('',*,*,#271,.F.);
#184=ORIENTED_EDGE('',*,*,#272,.F.);
#185=ORIENTED_EDGE('',*,*,#273,.T.);
#186=ORIENTED_EDGE('',*,*,#274,.T.);
#187=ORIENTED_EDGE('',*,*,#275,.F.);
#188=ORIENTED_EDGE('',*,*,#274,.F.);
#189=ORIENTED_EDGE('',*,*,#276,.T.);
#190=ORIENTED_EDGE('',*,*,#277,.T.);
#191=ORIENTED_EDGE('',*,*,#278,.F.);
#192=ORIENTED_EDGE('',*,*,#277,.F.);
#193=ORIENTED_EDGE('',*,*,#279,.T.);
#194=ORIENTED_EDGE('',*,*,#280,.T.);
#195=ORIENTED_EDGE('',*,*,#281,.F.);
#196=ORIENTED_EDGE('',*,*,#280,.F.);
#197=ORIENTED_EDGE('',*,*,#282,.T.);
#198=ORIENTED_EDGE('',*,*,#283,.T.);
#199=ORIENTED_EDGE('',*,*,#284,.F.);
#200=ORIENTED_EDGE('',*,*,#283,.F.);
#201=ORIENTED_EDGE('',*,*,#285,.T.);
#202=ORIENTED_EDGE('',*,*,#286,.T.);
#203=ORIENTED_EDGE('',*,*,#287,.F.);
#204=ORIENTED_EDGE('',*,*,#286,.F.);
#205=ORIENTED_EDGE('',*,*,#288,.T.);
#206=ORIENTED_EDGE('',*,*,#289,.T.);
#207=ORIENTED_EDGE('',*,*,#290,.F.);
#208=ORIENTED_EDGE('',*,*,#289,.F.);
#209=ORIENTED_EDGE('',*,*,#291,.T.);
#210=ORIENTED_EDGE('',*,*,#292,.T.);
#211=ORIENTED_EDGE('',*,*,#293,.F.);
#212=ORIENTED_EDGE('',*,*,#292,.F.);
#213=ORIENTED_EDGE('',*,*,#294,.T.);
#214=ORIENTED_EDGE('',*,*,#272,.T.);
#215=ORIENTED_EDGE('',*,*,#295,.T.);
#216=ORIENTED_EDGE('',*,*,#296,.T.);
#217=ORIENTED_EDGE('',*,*,#297,.T.);
#218=ORIENTED_EDGE('',*,*,#298,.T.);
#219=ORIENTED_EDGE('',*,*,#273,.F.);
#220=ORIENTED_EDGE('',*,*,#294,.F.);
#221=ORIENTED_EDGE('',*,*,#291,.F.);
#222=ORIENTED_EDGE('',*,*,#288,.F.);
#223=ORIENTED_EDGE('',*,*,#285,.F.);
#224=ORIENTED_EDGE('',*,*,#282,.F.);
#225=ORIENTED_EDGE('',*,*,#279,.F.);
#226=ORIENTED_EDGE('',*,*,#276,.F.);
#227=ORIENTED_EDGE('',*,*,#299,.T.);
#228=ORIENTED_EDGE('',*,*,#300,.T.);
#229=ORIENTED_EDGE('',*,*,#301,.T.);
#230=ORIENTED_EDGE('',*,*,#302,.T.);
#231=ORIENTED_EDGE('',*,*,#271,.T.);
#232=ORIENTED_EDGE('',*,*,#275,.T.);
#233=ORIENTED_EDGE('',*,*,#278,.T.);
#234=ORIENTED_EDGE('',*,*,#281,.T.);
#235=ORIENTED_EDGE('',*,*,#284,.T.);
#236=ORIENTED_EDGE('',*,*,#287,.T.);
#237=ORIENTED_EDGE('',*,*,#290,.T.);
#238=ORIENTED_EDGE('',*,*,#293,.T.);
#239=ORIENTED_EDGE('',*,*,#302,.F.);
#240=ORIENTED_EDGE('',*,*,#298,.F.);
#241=ORIENTED_EDGE('',*,*,#301,.F.);
#242=ORIENTED_EDGE('',*,*,#297,.F.);
#243=ORIENTED_EDGE('',*,*,#300,.F.);
#244=ORIENTED_EDGE('',*,*,#296,.F.);
#245=ORIENTED_EDGE('',*,*,#299,.F.);
#246=ORIENTED_EDGE('',*,*,#295,.F.);
#247=VERTEX_POINT('',#446);
#248=VERTEX_POINT('',#447);
#249=VERTEX_POINT('',#449);
#250=VERTEX_POINT('',#451);
#251=VERTEX_POINT('',#455);
#252=VERTEX_POINT('',#457);
#253=VERTEX_POINT('',#461);
#254=VERTEX_POINT('',#463);
#255=VERTEX_POINT('',#467);
#256=VERTEX_POINT('',#469);
#257=VERTEX_POINT('',#473);
#258=VERTEX_POINT('',#475);
#259=VERTEX_POINT('',#479);
#260=VERTEX_POINT('',#481);
#261=VERTEX_POINT('',#485);
#262=VERTEX_POINT('',#487);
#263=VERTEX_POINT('',#494);
#264=VERTEX_POINT('',#496);
#265=VERTEX_POINT('',#498);
#266=VERTEX_POINT('',#500);
#267=VERTEX_POINT('',#503);
#268=VERTEX_POINT('',#505);
#269=VERTEX_POINT('',#507);
#270=VERTEX_POINT('',#509);
#271=EDGE_CURVE('',#247,#248,#303,.T.);
#272=EDGE_CURVE('',#249,#247,#304,.T.);
#273=EDGE_CURVE('',#249,#250,#305,.T.);
#274=EDGE_CURVE('',#250,#248,#306,.T.);
#275=EDGE_CURVE('',#248,#251,#307,.T.);
#276=EDGE_CURVE('',#250,#252,#308,.T.);
#277=EDGE_CURVE('',#252,#251,#309,.T.);
#278=EDGE_CURVE('',#251,#253,#310,.T.);
#279=EDGE_CURVE('',#252,#254,#311,.T.);
#280=EDGE_CURVE('',#254,#253,#312,.T.);
#281=EDGE_CURVE('',#253,#255,#313,.T.);
#282=EDGE_CURVE('',#254,#256,#314,.T.);
#283=EDGE_CURVE('',#256,#255,#315,.T.);
#284=EDGE_CURVE('',#255,#257,#316,.T.);
#285=EDGE_CURVE('',#256,#258,#317,.T.);
#286=EDGE_CURVE('',#258,#257,#318,.T.);
#287=EDGE_CURVE('',#257,#259,#319,.T.);
#288=EDGE_CURVE('',#258,#260,#320,.T.);
#289=EDGE_CURVE('',#260,#259,#321,.T.);
#290=EDGE_CURVE('',#259,#261,#322,.T.);
#291=EDGE_CURVE('',#260,#262,#323,.T.);
#292=EDGE_CURVE('',#262,#261,#324,.T.);
#293=EDGE_CURVE('',#261,#247,#325,.T.);
#294=EDGE_CURVE('',#262,#249,#326,.T.);
#295=EDGE_CURVE('',#263,#263,#117,.T.);
#296=EDGE_CURVE('',#264,#264,#118,.T.);
#297=EDGE_CURVE('',#265,#265,#119,.T.);
#298=EDGE_CURVE('',#266,#266,#120,.T.);
#299=EDGE_CURVE('',#267,#267,#121,.T.);
#300=EDGE_CURVE('',#268,#268,#122,.T.);
#301=EDGE_CURVE('',#269,#269,#123,.T.);
#302=EDGE_CURVE('',#270,#270,#124,.T.);
#303=LINE('',#445,#327);
#304=LINE('',#448,#328);
#305=LINE('',#450,#329);
#306=LINE('',#452,#330);
#307=LINE('',#454,#331);
#308=LINE('',#456,#332);
#309=LINE('',#458,#333);
#310=LINE('',#460,#334);
#311=LINE('',#462,#335);
#312=LINE('',#464,#336);
#313=LINE('',#466,#337);
#314=LINE('',#468,#338);
#315=LINE('',#470,#339);
#316=LINE('',#472,#340);
#317=LINE('',#474,#341);
#318=LINE('',#476,#342);
#319=LINE('',#478,#343);
#320=LINE('',#480,#344);
#321=LINE('',#482,#345);
#322=LINE('',#484,#346);
#323=LINE('',#486,#347);
#324=LINE('',#488,#348);
#325=LINE('',#490,#349);
#326=LINE('',#491,#350);
#327=VECTOR('',#376,1.);
#328=VECTOR('',#377,1.);
#329=VECTOR('',#378,1.);
#330=VECTOR('',#379,1.);
#331=VECTOR('',#382,1.);
#332=VECTOR('',#383,1.);
#333=VECTOR('',#384,1.);
#334=VECTOR('',#387,1.);
#335=VECTOR('',#388,1.);
#336=VECTOR('',#389,1.);
#337=VECTOR('',#392,1.);
#338=VECTOR('',#393,1.);
#339=VECTOR('',#394,1.);
#340=VECTOR('',#397,1.);
#341=VECTOR('',#398,1.);
#342=VECTOR('',#399,1.);
#343=VECTOR('',#402,1.);
#344=VECTOR('',#403,1.);
#345=VECTOR('',#404,1.);
#346=VECTOR('',#407,1.);
#347=VECTOR('',#408,1.);
#348=VECTOR('',#409,1.);
#349=VECTOR('',#412,1.);
#350=VECTOR('',#413,1.);
#351=AXIS2_PLACEMENT_3D('',#444,#374,#375);
#352=AXIS2_PLACEMENT_3D('',#453,#380,#381);
#353=AXIS2_PLACEMENT_3D('',#459,#385,#386);
#354=AXIS2_PLACEMENT_3D('',#465,#390,#391);
#355=AXIS2_PLACEMENT_3D('',#471,#395,#396);
#356=AXIS2_PLACEMENT_3D('',#477,#400,#401);
#357=AXIS2_PLACEMENT_3D('',#483,#405,#406);
#358=AXIS2_PLACEMENT_3D('',#489,#410,#411);
#359=AXIS2_PLACEMENT_3D('',#492,#414,#415);
#360=AXIS2_PLACEMENT_3D('',#493,#416,#417);
#361=AXIS2_PLACEMENT_3D('',#495,#418,#419);
#362=AXIS2_PLACEMENT_3D('',#497,#420,#421);
#363=AXIS2_PLACEMENT_3D('',#499,#422,#423);
#364=AXIS2_PLACEMENT_3D('',#501,#424,#425);
#365=AXIS2_PLACEMENT_3D('',#502,#426,#427);
#366=AXIS2_PLACEMENT_3D('',#504,#428,#429);
#367=AXIS2_PLACEMENT_3D('',#506,#430,#431);
#368=AXIS2_PLACEMENT_3D('',#508,#432,#433);
#369=AXIS2_PLACEMENT_3D('',#510,#434,#435);
#370=AXIS2_PLACEMENT_3D('',#511,#436,#437);
#371=AXIS2_PLACEMENT_3D('',#512,#438,#439);
#372=AXIS2_PLACEMENT_3D('',#513,#440,#441);
#373=AXIS2_PLACEMENT_3D('',#514,#442,#443);
#374=DIRECTION('',(0.,0.,1.));
#375=DIRECTION('',(1.,0.,0.));
#376=DIRECTION('',(7.7694788471387E-016,1.,0.));
#377=DIRECTION('',(0.,0.,-1.));
#378=DIRECTION('',(7.7694788471387E-016,1.,0.));
#379=DIRECTION('',(0.,0.,-1.));
#380=DIRECTION('',(-1.,7.7694788471387E-016,0.));
#381=DIRECTION('',(-7.7715611723761E-016,-1.,0.));
#382=DIRECTION('',(0.707106781186561,0.707106781186534,0.));
#383=DIRECTION('',(0.707106781186561,0.707106781186534,0.));
#384=DIRECTION('',(0.,0.,-1.));
#385=DIRECTION('',(-0.707106781186534,0.707106781186561,0.));
#386=DIRECTION('',(-0.707106781186561,-0.707106781186534,0.));
#387=DIRECTION('',(1.,0.,0.));
#388=DIRECTION('',(1.,0.,0.));
#389=DIRECTION('',(0.,0.,-1.));
#390=DIRECTION('',(0.,1.,0.));
#391=DIRECTION('',(0.,0.,1.));
#392=DIRECTION('',(0.707106781186537,-0.707106781186558,0.));
#393=DIRECTION('',(0.707106781186537,-0.707106781186558,0.));
#394=DIRECTION('',(0.,0.,-1.));
#395=DIRECTION('',(0.707106781186558,0.707106781186537,0.));
#396=DIRECTION('',(-0.707106781186537,0.707106781186558,0.));
#397=DIRECTION('',(0.,-1.,0.));
#398=DIRECTION('',(0.,-1.,0.));
#399=DIRECTION('',(0.,0.,-1.));
#400=DIRECTION('',(1.,0.,0.));
#401=DIRECTION('',(0.,0.,-1.));
#402=DIRECTION('',(-0.707106781186537,-0.707106781186558,0.));
#403=DIRECTION('',(-0.707106781186537,-0.707106781186558,0.));
#404=DIRECTION('',(0.,0.,-1.));
#405=DIRECTION('',(0.707106781186558,-0.707106781186537,0.));
#406=DIRECTION('',(0.707106781186537,0.707106781186558,0.));
#407=DIRECTION('',(-1.,0.,0.));
#408=DIRECTION('',(-1.,0.,0.));
#409=DIRECTION('',(0.,0.,-1.));
#410=DIRECTION('',(0.,-1.,0.));
#411=DIRECTION('',(0.,0.,-1.));
#412=DIRECTION('',(-0.707106781186527,0.707106781186568,0.));
#413=DIRECTION('',(-0.707106781186527,0.707106781186568,0.));
#414=DIRECTION('',(-0.707106781186568,-0.707106781186527,0.));
#415=DIRECTION('',(0.707106781186527,-0.707106781186568,0.));
#416=DIRECTION('',(0.,0.,-1.));
#417=DIRECTION('',(-1.,0.,0.));
#418=DIRECTION('',(0.,0.,-1.));
#419=DIRECTION('',(-1.,0.,0.));
#420=DIRECTION('',(0.,0.,-1.));
#421=DIRECTION('',(-1.,0.,0.));
#422=DIRECTION('',(0.,0.,-1.));
#423=DIRECTION('',(-1.,0.,0.));
#424=DIRECTION('',(0.,0.,-1.));
#425=DIRECTION('',(-1.,0.,0.));
#426=DIRECTION('',(0.,0.,1.));
#427=DIRECTION('',(-1.,0.,0.));
#428=DIRECTION('',(0.,0.,1.));
#429=DIRECTION('',(-1.,0.,0.));
#430=DIRECTION('',(0.,0.,1.));
#431=DIRECTION('',(-1.,0.,0.));
#432=DIRECTION('',(0.,0.,1.));
#433=DIRECTION('',(-1.,0.,0.));
#434=DIRECTION('',(0.,0.,-1.));
#435=DIRECTION('',(-1.,0.,0.));
#436=DIRECTION('',(0.,0.,1.));
#437=DIRECTION('',(1.,0.,0.));
#438=DIRECTION('',(0.,0.,1.));
#439=DIRECTION('',(1.,0.,0.));
#440=DIRECTION('',(0.,0.,1.));
#441=DIRECTION('',(1.,0.,0.));
#442=DIRECTION('',(0.,0.,1.));
#443=DIRECTION('',(1.,0.,0.));
#444=CARTESIAN_POINT('',(0.,0.,0.));
#445=CARTESIAN_POINT('',(-305.825376476905,283.917101169492,0.));
#446=CARTESIAN_POINT('',(-305.825376476905,283.917101169492,0.));
#447=CARTESIAN_POINT('',(-305.825376476905,498.26024692,0.));
#448=CARTESIAN_POINT('',(-305.825376476905,283.917101169492,2.));
#449=CARTESIAN_POINT('',(-305.825376476905,283.917101169492,2.));
#450=CARTESIAN_POINT('',(-305.825376476905,283.917101169492,2.));
#451=CARTESIAN_POINT('',(-305.825376476905,498.26024692,2.));
#452=CARTESIAN_POINT('',(-305.825376476905,498.26024692,2.));
#453=CARTESIAN_POINT('',(-305.825376476905,283.917101169492,2.));
#454=CARTESIAN_POINT('',(-305.825376476905,498.26024692,0.));
#455=CARTESIAN_POINT('',(-302.996949352159,501.088674044746,0.));
#456=CARTESIAN_POINT('',(-305.825376476905,498.26024692,2.));
#457=CARTESIAN_POINT('',(-302.996949352159,501.088674044746,2.));
#458=CARTESIAN_POINT('',(-302.996949352159,501.088674044746,2.));
#459=CARTESIAN_POINT('',(-305.825376476905,498.26024692,2.));
#460=CARTESIAN_POINT('',(-302.996949352159,501.088674044746,0.));
#461=CARTESIAN_POINT('',(-178.653803601651,501.088674044746,0.));
#462=CARTESIAN_POINT('',(-302.996949352159,501.088674044746,2.));
#463=CARTESIAN_POINT('',(-178.653803601651,501.088674044746,2.));
#464=CARTESIAN_POINT('',(-178.653803601651,501.088674044746,2.));
#465=CARTESIAN_POINT('',(-302.996949352159,501.088674044746,2.));
#466=CARTESIAN_POINT('',(-178.653803601651,501.088674044746,0.));
#467=CARTESIAN_POINT('',(-175.825376476905,498.26024692,0.));
#468=CARTESIAN_POINT('',(-178.653803601651,501.088674044746,2.));
#469=CARTESIAN_POINT('',(-175.825376476905,498.26024692,2.));
#470=CARTESIAN_POINT('',(-175.825376476905,498.26024692,2.));
#471=CARTESIAN_POINT('',(-178.653803601651,501.088674044746,2.));
#472=CARTESIAN_POINT('',(-175.825376476905,498.26024692,0.));
#473=CARTESIAN_POINT('',(-175.825376476905,283.917101169492,0.));
#474=CARTESIAN_POINT('',(-175.825376476905,498.26024692,2.));
#475=CARTESIAN_POINT('',(-175.825376476905,283.917101169492,2.));
#476=CARTESIAN_POINT('',(-175.825376476905,283.917101169492,2.));
#477=CARTESIAN_POINT('',(-175.825376476905,498.26024692,2.));
#478=CARTESIAN_POINT('',(-175.825376476905,283.917101169492,0.));
#479=CARTESIAN_POINT('',(-178.653803601651,281.088674044746,0.));
#480=CARTESIAN_POINT('',(-175.825376476905,283.917101169492,2.));
#481=CARTESIAN_POINT('',(-178.653803601651,281.088674044746,2.));
#482=CARTESIAN_POINT('',(-178.653803601651,281.088674044746,2.));
#483=CARTESIAN_POINT('',(-175.825376476905,283.917101169492,2.));
#484=CARTESIAN_POINT('',(-178.653803601651,281.088674044746,0.));
#485=CARTESIAN_POINT('',(-302.996949352159,281.088674044746,0.));
#486=CARTESIAN_POINT('',(-178.653803601651,281.088674044746,2.));
#487=CARTESIAN_POINT('',(-302.996949352159,281.088674044746,2.));
#488=CARTESIAN_POINT('',(-302.996949352159,281.088674044746,2.));
#489=CARTESIAN_POINT('',(-178.653803601651,281.088674044746,2.));
#490=CARTESIAN_POINT('',(-302.996949352159,281.088674044746,0.));
#491=CARTESIAN_POINT('',(-302.996949352159,281.088674044746,2.));
#492=CARTESIAN_POINT('',(-302.996949352159,281.088674044746,2.));
#493=CARTESIAN_POINT('',(-185.825376476905,491.088674044746,2.));
#494=CARTESIAN_POINT('',(-189.325376476905,491.088674044746,2.));
#495=CARTESIAN_POINT('',(-295.825376476905,491.088674044746,2.));
#496=CARTESIAN_POINT('',(-299.325376476905,491.088674044746,2.));
#497=CARTESIAN_POINT('',(-295.825376476905,291.088674044746,2.));
#498=CARTESIAN_POINT('',(-299.325376476905,291.088674044746,2.));
#499=CARTESIAN_POINT('',(-185.825376476905,291.088674044746,2.));
#500=CARTESIAN_POINT('',(-189.325376476905,291.088674044746,2.));
#501=CARTESIAN_POINT('',(0.,0.,2.));
#502=CARTESIAN_POINT('',(-185.825376476905,491.088674044746,0.));
#503=CARTESIAN_POINT('',(-189.325376476905,491.088674044746,0.));
#504=CARTESIAN_POINT('',(-295.825376476905,491.088674044746,0.));
#505=CARTESIAN_POINT('',(-299.325376476905,491.088674044746,0.));
#506=CARTESIAN_POINT('',(-295.825376476905,291.088674044746,0.));
#507=CARTESIAN_POINT('',(-299.325376476905,291.088674044746,0.));
#508=CARTESIAN_POINT('',(-185.825376476905,291.088674044746,0.));
#509=CARTESIAN_POINT('',(-189.325376476905,291.088674044746,0.));
#510=CARTESIAN_POINT('',(0.,0.,0.));
#511=CARTESIAN_POINT('',(-185.825376476905,291.088674044746,-10.));
#512=CARTESIAN_POINT('',(-295.825376476905,291.088674044746,-10.));
#513=CARTESIAN_POINT('',(-295.825376476905,491.088674044746,-10.));
#514=CARTESIAN_POINT('',(-185.825376476905,491.088674044746,-10.));
#515=(
GEOMETRIC_REPRESENTATION_CONTEXT(3)
GLOBAL_UNCERTAINTY_ASSIGNED_CONTEXT((#516))
GLOBAL_UNIT_ASSIGNED_CONTEXT((#522,#518,#517))
REPRESENTATION_CONTEXT('PML32','TOP_LEVEL_ASSEMBLY_PART')
);
#516=UNCERTAINTY_MEASURE_WITH_UNIT(LENGTH_MEASURE(2.E-005),#522,
'DISTANCE_ACCURACY_VALUE','Maximum Tolerance applied to model');
#517=(
NAMED_UNIT(*)
SI_UNIT($,.STERADIAN.)
SOLID_ANGLE_UNIT()
);
#518=(
CONVERSION_BASED_UNIT('DEGREE',#520)
NAMED_UNIT(#519)
PLANE_ANGLE_UNIT()
);
#519=DIMENSIONAL_EXPONENTS(0.,0.,0.,0.,0.,0.,0.);
#520=PLANE_ANGLE_MEASURE_WITH_UNIT(PLANE_ANGLE_MEASURE(0.0174532925),#521);
#521=(
NAMED_UNIT(*)
PLANE_ANGLE_UNIT()
SI_UNIT($,.RADIAN.)
);
#522=(
LENGTH_UNIT()
NAMED_UNIT(*)
SI_UNIT(.MILLI.,.METRE.)
);
ENDSEC;
END-ISO-10303-21;
