ISO-10303-21;
HEADER;
/* Generated by software containing ST-Developer
 * from STEP Tools, Inc. (www.steptools.com) 
 */
/* OPTION: using custom schema-name function */

FILE_DESCRIPTION(
/* description */ (''),
/* implementation_level */ '2;1');

FILE_NAME(
/* name */ 'PML10075.stp',
/* time_stamp */ '2017-03-03T09:36:39+01:00',
/* author */ (''),
/* organization */ (''),
/* preprocessor_version */ 'ST-DEVELOPER v15',
/* originating_system */ 'SIEMENS PLM Software NX 9.0',
/* authorisation */ '');

FILE_SCHEMA (('CONFIG_CONTROL_DESIGN'));
ENDSEC;

DATA;
#10=SHAPE_REPRESENTATION_RELATIONSHIP('None',
'relationship between PML10075_stp-None and PML10075_stp-None',#92,#11);
#11=ADVANCED_BREP_SHAPE_REPRESENTATION('PML10075_stp-None',(#93),#535);
#12=CC_DESIGN_APPROVAL(#24,(#82));
#13=CC_DESIGN_APPROVAL(#25,(#84));
#14=CC_DESIGN_APPROVAL(#26,(#31));
#15=APPROVAL_PERSON_ORGANIZATION(#69,#24,#18);
#16=APPROVAL_PERSON_ORGANIZATION(#70,#25,#19);
#17=APPROVAL_PERSON_ORGANIZATION(#71,#26,#20);
#18=APPROVAL_ROLE('approver');
#19=APPROVAL_ROLE('approver');
#20=APPROVAL_ROLE('approver');
#21=APPROVAL_DATE_TIME(#39,#24);
#22=APPROVAL_DATE_TIME(#40,#25);
#23=APPROVAL_DATE_TIME(#41,#26);
#24=APPROVAL(#27,' ');
#25=APPROVAL(#28,' ');
#26=APPROVAL(#29,' ');
#27=APPROVAL_STATUS('not_yet_approved');
#28=APPROVAL_STATUS('not_yet_approved');
#29=APPROVAL_STATUS('not_yet_approved');
#30=CC_DESIGN_SECURITY_CLASSIFICATION(#31,(#84));
#31=SECURITY_CLASSIFICATION(' ',' ',#32);
#32=SECURITY_CLASSIFICATION_LEVEL('confidential');
#33=CC_DESIGN_DATE_AND_TIME_ASSIGNMENT(#37,#35,(#82));
#34=CC_DESIGN_DATE_AND_TIME_ASSIGNMENT(#38,#36,(#31));
#35=DATE_TIME_ROLE('creation_date');
#36=DATE_TIME_ROLE('classification_date');
#37=DATE_AND_TIME(#52,#42);
#38=DATE_AND_TIME(#53,#43);
#39=DATE_AND_TIME(#54,#44);
#40=DATE_AND_TIME(#55,#45);
#41=DATE_AND_TIME(#56,#46);
#42=LOCAL_TIME(0,0,0.,#47);
#43=LOCAL_TIME(0,0,0.,#48);
#44=LOCAL_TIME(0,0,0.,#49);
#45=LOCAL_TIME(0,0,0.,#50);
#46=LOCAL_TIME(0,0,0.,#51);
#47=COORDINATED_UNIVERSAL_TIME_OFFSET(0,0,.BEHIND.);
#48=COORDINATED_UNIVERSAL_TIME_OFFSET(0,0,.BEHIND.);
#49=COORDINATED_UNIVERSAL_TIME_OFFSET(0,0,.BEHIND.);
#50=COORDINATED_UNIVERSAL_TIME_OFFSET(0,0,.BEHIND.);
#51=COORDINATED_UNIVERSAL_TIME_OFFSET(0,0,.BEHIND.);
#52=CALENDAR_DATE(0,1,1);
#53=CALENDAR_DATE(0,1,1);
#54=CALENDAR_DATE(0,1,1);
#55=CALENDAR_DATE(0,1,1);
#56=CALENDAR_DATE(0,1,1);
#57=CC_DESIGN_PERSON_AND_ORGANIZATION_ASSIGNMENT(#65,#61,(#82,#84));
#58=CC_DESIGN_PERSON_AND_ORGANIZATION_ASSIGNMENT(#66,#62,(#86));
#59=CC_DESIGN_PERSON_AND_ORGANIZATION_ASSIGNMENT(#67,#63,(#84));
#60=CC_DESIGN_PERSON_AND_ORGANIZATION_ASSIGNMENT(#68,#64,(#31));
#61=PERSON_AND_ORGANIZATION_ROLE('creator');
#62=PERSON_AND_ORGANIZATION_ROLE('design_owner');
#63=PERSON_AND_ORGANIZATION_ROLE('design_supplier');
#64=PERSON_AND_ORGANIZATION_ROLE('classification_officer');
#65=PERSON_AND_ORGANIZATION(#79,#72);
#66=PERSON_AND_ORGANIZATION(#79,#73);
#67=PERSON_AND_ORGANIZATION(#79,#74);
#68=PERSON_AND_ORGANIZATION(#79,#75);
#69=PERSON_AND_ORGANIZATION(#79,#76);
#70=PERSON_AND_ORGANIZATION(#79,#77);
#71=PERSON_AND_ORGANIZATION(#79,#78);
#72=ORGANIZATION(' ',' ',' ');
#73=ORGANIZATION(' ',' ',' ');
#74=ORGANIZATION(' ',' ',' ');
#75=ORGANIZATION(' ',' ',' ');
#76=ORGANIZATION(' ',' ',' ');
#77=ORGANIZATION(' ',' ',' ');
#78=ORGANIZATION(' ',' ',' ');
#79=PERSON(' ',' ',' ',(' '),$,$);
#80=SHAPE_DEFINITION_REPRESENTATION(#81,#92);
#81=PRODUCT_DEFINITION_SHAPE('','',#82);
#82=PRODUCT_DEFINITION(' ','',#84,#83);
#83=DESIGN_CONTEXT('',#91,'design');
#84=PRODUCT_DEFINITION_FORMATION_WITH_SPECIFIED_SOURCE(' ',' ',#86,
 .NOT_KNOWN.);
#85=PRODUCT_RELATED_PRODUCT_CATEGORY('detail','',(#86));
#86=PRODUCT('PML10075_stp','PML10075_stp',' ',(#89));
#87=PRODUCT_CATEGORY('part',' ');
#88=PRODUCT_CATEGORY(' ','');
#89=MECHANICAL_CONTEXT(' ',#91,'mechanical');
#90=APPLICATION_PROTOCOL_DEFINITION('international standard',
'config_control_design',2010,#91);
#91=APPLICATION_CONTEXT(
'configuration controlled 3D designs of mechanical parts and assemblie
s');
#92=SHAPE_REPRESENTATION('PML10075_stp-None',(#363),#535);
#93=MANIFOLD_SOLID_BREP('R2',#94);
#94=CLOSED_SHELL('',(#117,#118,#119,#120,#121,#122,#123,#124,#125,#126,
#127,#128,#129,#130));
#95=FACE_BOUND('',#163,.T.);
#96=FACE_BOUND('',#164,.T.);
#97=FACE_BOUND('',#165,.T.);
#98=FACE_BOUND('',#166,.T.);
#99=FACE_BOUND('',#167,.T.);
#100=FACE_BOUND('',#169,.T.);
#101=FACE_BOUND('',#170,.T.);
#102=FACE_BOUND('',#171,.T.);
#103=FACE_BOUND('',#172,.T.);
#104=FACE_BOUND('',#173,.T.);
#105=CYLINDRICAL_SURFACE('',#370,4.49999999999825);
#106=CYLINDRICAL_SURFACE('',#373,4.49999999999568);
#107=CYLINDRICAL_SURFACE('',#376,4.50000000000051);
#108=CYLINDRICAL_SURFACE('',#379,4.50000000000555);
#109=CIRCLE('',#368,4.49999999999418);
#110=CIRCLE('',#369,4.49999999999668);
#111=CIRCLE('',#371,4.49999999999444);
#112=CIRCLE('',#372,4.49999999999677);
#113=CIRCLE('',#374,4.50000000000051);
#114=CIRCLE('',#375,4.50000000000057);
#115=CIRCLE('',#377,4.49999999999998);
#116=CIRCLE('',#378,4.50000000000004);
#117=ADVANCED_FACE('F14',(#141),#131,.T.);
#118=ADVANCED_FACE('F13',(#142),#132,.T.);
#119=ADVANCED_FACE('F12',(#143),#133,.T.);
#120=ADVANCED_FACE('F11',(#144),#134,.T.);
#121=ADVANCED_FACE('F8',(#145),#105,.F.);
#122=ADVANCED_FACE('F7',(#146),#106,.F.);
#123=ADVANCED_FACE('F6',(#147),#107,.F.);
#124=ADVANCED_FACE('F5',(#148),#108,.F.);
#125=ADVANCED_FACE('F3',(#149),#135,.T.);
#126=ADVANCED_FACE('F2',(#150),#136,.T.);
#127=ADVANCED_FACE('F9',(#95,#96,#97,#98,#99),#137,.T.);
#128=ADVANCED_FACE('F4',(#151),#138,.T.);
#129=ADVANCED_FACE('F10',(#100,#101,#102,#103,#104),#139,.T.);
#130=ADVANCED_FACE('F1',(#152),#140,.T.);
#131=PLANE('',#364);
#132=PLANE('',#365);
#133=PLANE('',#366);
#134=PLANE('',#367);
#135=PLANE('',#380);
#136=PLANE('',#381);
#137=PLANE('',#382);
#138=PLANE('',#383);
#139=PLANE('',#384);
#140=PLANE('',#385);
#141=FACE_OUTER_BOUND('',#153,.T.);
#142=FACE_OUTER_BOUND('',#154,.T.);
#143=FACE_OUTER_BOUND('',#155,.T.);
#144=FACE_OUTER_BOUND('',#156,.T.);
#145=FACE_OUTER_BOUND('',#157,.T.);
#146=FACE_OUTER_BOUND('',#158,.T.);
#147=FACE_OUTER_BOUND('',#159,.T.);
#148=FACE_OUTER_BOUND('',#160,.T.);
#149=FACE_OUTER_BOUND('',#161,.T.);
#150=FACE_OUTER_BOUND('',#162,.T.);
#151=FACE_OUTER_BOUND('',#168,.T.);
#152=FACE_OUTER_BOUND('',#174,.T.);
#153=EDGE_LOOP('',(#175,#176,#177,#178));
#154=EDGE_LOOP('',(#179,#180,#181,#182));
#155=EDGE_LOOP('',(#183,#184,#185,#186));
#156=EDGE_LOOP('',(#187,#188,#189,#190));
#157=EDGE_LOOP('',(#191,#192,#193,#194));
#158=EDGE_LOOP('',(#195,#196,#197,#198));
#159=EDGE_LOOP('',(#199,#200,#201,#202));
#160=EDGE_LOOP('',(#203,#204,#205,#206));
#161=EDGE_LOOP('',(#207,#208,#209,#210));
#162=EDGE_LOOP('',(#211,#212,#213,#214));
#163=EDGE_LOOP('',(#215,#216,#217,#218,#219,#220,#221,#222));
#164=EDGE_LOOP('',(#223));
#165=EDGE_LOOP('',(#224));
#166=EDGE_LOOP('',(#225));
#167=EDGE_LOOP('',(#226));
#168=EDGE_LOOP('',(#227,#228,#229,#230));
#169=EDGE_LOOP('',(#231,#232,#233,#234,#235,#236,#237,#238));
#170=EDGE_LOOP('',(#239));
#171=EDGE_LOOP('',(#240));
#172=EDGE_LOOP('',(#241));
#173=EDGE_LOOP('',(#242));
#174=EDGE_LOOP('',(#243,#244,#245,#246));
#175=ORIENTED_EDGE('',*,*,#271,.F.);
#176=ORIENTED_EDGE('',*,*,#272,.F.);
#177=ORIENTED_EDGE('',*,*,#273,.F.);
#178=ORIENTED_EDGE('',*,*,#274,.F.);
#179=ORIENTED_EDGE('',*,*,#275,.F.);
#180=ORIENTED_EDGE('',*,*,#276,.F.);
#181=ORIENTED_EDGE('',*,*,#277,.F.);
#182=ORIENTED_EDGE('',*,*,#278,.F.);
#183=ORIENTED_EDGE('',*,*,#279,.F.);
#184=ORIENTED_EDGE('',*,*,#280,.F.);
#185=ORIENTED_EDGE('',*,*,#281,.F.);
#186=ORIENTED_EDGE('',*,*,#282,.F.);
#187=ORIENTED_EDGE('',*,*,#283,.F.);
#188=ORIENTED_EDGE('',*,*,#284,.F.);
#189=ORIENTED_EDGE('',*,*,#285,.F.);
#190=ORIENTED_EDGE('',*,*,#286,.F.);
#191=ORIENTED_EDGE('',*,*,#287,.T.);
#192=ORIENTED_EDGE('',*,*,#288,.T.);
#193=ORIENTED_EDGE('',*,*,#289,.T.);
#194=ORIENTED_EDGE('',*,*,#288,.F.);
#195=ORIENTED_EDGE('',*,*,#290,.T.);
#196=ORIENTED_EDGE('',*,*,#291,.T.);
#197=ORIENTED_EDGE('',*,*,#292,.T.);
#198=ORIENTED_EDGE('',*,*,#291,.F.);
#199=ORIENTED_EDGE('',*,*,#293,.T.);
#200=ORIENTED_EDGE('',*,*,#294,.T.);
#201=ORIENTED_EDGE('',*,*,#295,.T.);
#202=ORIENTED_EDGE('',*,*,#294,.F.);
#203=ORIENTED_EDGE('',*,*,#296,.T.);
#204=ORIENTED_EDGE('',*,*,#297,.T.);
#205=ORIENTED_EDGE('',*,*,#298,.T.);
#206=ORIENTED_EDGE('',*,*,#297,.F.);
#207=ORIENTED_EDGE('',*,*,#274,.T.);
#208=ORIENTED_EDGE('',*,*,#299,.T.);
#209=ORIENTED_EDGE('',*,*,#278,.T.);
#210=ORIENTED_EDGE('',*,*,#300,.T.);
#211=ORIENTED_EDGE('',*,*,#276,.T.);
#212=ORIENTED_EDGE('',*,*,#301,.T.);
#213=ORIENTED_EDGE('',*,*,#284,.T.);
#214=ORIENTED_EDGE('',*,*,#302,.T.);
#215=ORIENTED_EDGE('',*,*,#273,.T.);
#216=ORIENTED_EDGE('',*,*,#303,.F.);
#217=ORIENTED_EDGE('',*,*,#281,.T.);
#218=ORIENTED_EDGE('',*,*,#304,.F.);
#219=ORIENTED_EDGE('',*,*,#285,.T.);
#220=ORIENTED_EDGE('',*,*,#301,.F.);
#221=ORIENTED_EDGE('',*,*,#275,.T.);
#222=ORIENTED_EDGE('',*,*,#299,.F.);
#223=ORIENTED_EDGE('',*,*,#298,.F.);
#224=ORIENTED_EDGE('',*,*,#295,.F.);
#225=ORIENTED_EDGE('',*,*,#292,.F.);
#226=ORIENTED_EDGE('',*,*,#289,.F.);
#227=ORIENTED_EDGE('',*,*,#272,.T.);
#228=ORIENTED_EDGE('',*,*,#305,.T.);
#229=ORIENTED_EDGE('',*,*,#282,.T.);
#230=ORIENTED_EDGE('',*,*,#303,.T.);
#231=ORIENTED_EDGE('',*,*,#271,.T.);
#232=ORIENTED_EDGE('',*,*,#300,.F.);
#233=ORIENTED_EDGE('',*,*,#277,.T.);
#234=ORIENTED_EDGE('',*,*,#302,.F.);
#235=ORIENTED_EDGE('',*,*,#283,.T.);
#236=ORIENTED_EDGE('',*,*,#306,.F.);
#237=ORIENTED_EDGE('',*,*,#279,.T.);
#238=ORIENTED_EDGE('',*,*,#305,.F.);
#239=ORIENTED_EDGE('',*,*,#296,.F.);
#240=ORIENTED_EDGE('',*,*,#293,.F.);
#241=ORIENTED_EDGE('',*,*,#290,.F.);
#242=ORIENTED_EDGE('',*,*,#287,.F.);
#243=ORIENTED_EDGE('',*,*,#280,.T.);
#244=ORIENTED_EDGE('',*,*,#306,.T.);
#245=ORIENTED_EDGE('',*,*,#286,.T.);
#246=ORIENTED_EDGE('',*,*,#304,.T.);
#247=VERTEX_POINT('',#462);
#248=VERTEX_POINT('',#463);
#249=VERTEX_POINT('',#465);
#250=VERTEX_POINT('',#467);
#251=VERTEX_POINT('',#471);
#252=VERTEX_POINT('',#472);
#253=VERTEX_POINT('',#474);
#254=VERTEX_POINT('',#476);
#255=VERTEX_POINT('',#480);
#256=VERTEX_POINT('',#481);
#257=VERTEX_POINT('',#483);
#258=VERTEX_POINT('',#485);
#259=VERTEX_POINT('',#489);
#260=VERTEX_POINT('',#490);
#261=VERTEX_POINT('',#492);
#262=VERTEX_POINT('',#494);
#263=VERTEX_POINT('',#498);
#264=VERTEX_POINT('',#500);
#265=VERTEX_POINT('',#504);
#266=VERTEX_POINT('',#506);
#267=VERTEX_POINT('',#510);
#268=VERTEX_POINT('',#512);
#269=VERTEX_POINT('',#516);
#270=VERTEX_POINT('',#518);
#271=EDGE_CURVE('E67',#247,#248,#307,.T.);
#272=EDGE_CURVE('E60',#249,#247,#308,.T.);
#273=EDGE_CURVE('E68',#250,#249,#309,.T.);
#274=EDGE_CURVE('E62',#248,#250,#310,.T.);
#275=EDGE_CURVE('E57',#251,#252,#311,.T.);
#276=EDGE_CURVE('E50',#253,#251,#312,.T.);
#277=EDGE_CURVE('E58',#254,#253,#313,.T.);
#278=EDGE_CURVE('E52',#252,#254,#314,.T.);
#279=EDGE_CURVE('E47',#255,#256,#315,.T.);
#280=EDGE_CURVE('E40',#257,#255,#316,.T.);
#281=EDGE_CURVE('E48',#258,#257,#317,.T.);
#282=EDGE_CURVE('E42',#256,#258,#318,.T.);
#283=EDGE_CURVE('E37',#259,#260,#319,.T.);
#284=EDGE_CURVE('E30',#261,#259,#320,.T.);
#285=EDGE_CURVE('E38',#262,#261,#321,.T.);
#286=EDGE_CURVE('E32',#260,#262,#322,.T.);
#287=EDGE_CURVE('E26',#263,#263,#109,.T.);
#288=EDGE_CURVE('E27',#263,#264,#323,.T.);
#289=EDGE_CURVE('E28',#264,#264,#110,.T.);
#290=EDGE_CURVE('E23',#265,#265,#111,.T.);
#291=EDGE_CURVE('E24',#265,#266,#324,.T.);
#292=EDGE_CURVE('E25',#266,#266,#112,.T.);
#293=EDGE_CURVE('E20',#267,#267,#113,.T.);
#294=EDGE_CURVE('E21',#267,#268,#325,.T.);
#295=EDGE_CURVE('E22',#268,#268,#114,.T.);
#296=EDGE_CURVE('E17',#269,#269,#115,.T.);
#297=EDGE_CURVE('E18',#269,#270,#326,.T.);
#298=EDGE_CURVE('E19',#270,#270,#116,.T.);
#299=EDGE_CURVE('E11',#250,#252,#327,.T.);
#300=EDGE_CURVE('E9',#254,#248,#328,.T.);
#301=EDGE_CURVE('E7',#251,#261,#329,.T.);
#302=EDGE_CURVE('E5',#259,#253,#330,.T.);
#303=EDGE_CURVE('E15',#258,#249,#331,.T.);
#304=EDGE_CURVE('E3',#262,#257,#332,.T.);
#305=EDGE_CURVE('E13',#247,#256,#333,.T.);
#306=EDGE_CURVE('E1',#255,#260,#334,.T.);
#307=LINE('',#461,#335);
#308=LINE('',#464,#336);
#309=LINE('',#466,#337);
#310=LINE('',#468,#338);
#311=LINE('',#470,#339);
#312=LINE('',#473,#340);
#313=LINE('',#475,#341);
#314=LINE('',#477,#342);
#315=LINE('',#479,#343);
#316=LINE('',#482,#344);
#317=LINE('',#484,#345);
#318=LINE('',#486,#346);
#319=LINE('',#488,#347);
#320=LINE('',#491,#348);
#321=LINE('',#493,#349);
#322=LINE('',#495,#350);
#323=LINE('',#499,#351);
#324=LINE('',#505,#352);
#325=LINE('',#511,#353);
#326=LINE('',#517,#354);
#327=LINE('',#521,#355);
#328=LINE('',#522,#356);
#329=LINE('',#524,#357);
#330=LINE('',#525,#358);
#331=LINE('',#527,#359);
#332=LINE('',#528,#360);
#333=LINE('',#530,#361);
#334=LINE('',#532,#362);
#335=VECTOR('',#388,1.);
#336=VECTOR('',#389,1.);
#337=VECTOR('',#390,1.);
#338=VECTOR('',#391,1.);
#339=VECTOR('',#394,1.);
#340=VECTOR('',#395,1.);
#341=VECTOR('',#396,1.);
#342=VECTOR('',#397,1.);
#343=VECTOR('',#400,1.);
#344=VECTOR('',#401,1.);
#345=VECTOR('',#402,1.);
#346=VECTOR('',#403,1.);
#347=VECTOR('',#406,1.);
#348=VECTOR('',#407,1.);
#349=VECTOR('',#408,1.);
#350=VECTOR('',#409,1.);
#351=VECTOR('',#414,1.);
#352=VECTOR('',#421,1.);
#353=VECTOR('',#428,1.);
#354=VECTOR('',#435,1.);
#355=VECTOR('',#440,1.);
#356=VECTOR('',#441,1.);
#357=VECTOR('',#444,1.);
#358=VECTOR('',#445,1.);
#359=VECTOR('',#448,1.);
#360=VECTOR('',#449,1.);
#361=VECTOR('',#452,1.);
#362=VECTOR('',#455,1.);
#363=AXIS2_PLACEMENT_3D('',#460,#386,#387);
#364=AXIS2_PLACEMENT_3D('',#469,#392,#393);
#365=AXIS2_PLACEMENT_3D('',#478,#398,#399);
#366=AXIS2_PLACEMENT_3D('',#487,#404,#405);
#367=AXIS2_PLACEMENT_3D('',#496,#410,#411);
#368=AXIS2_PLACEMENT_3D('',#497,#412,#413);
#369=AXIS2_PLACEMENT_3D('',#501,#415,#416);
#370=AXIS2_PLACEMENT_3D('',#502,#417,#418);
#371=AXIS2_PLACEMENT_3D('',#503,#419,#420);
#372=AXIS2_PLACEMENT_3D('',#507,#422,#423);
#373=AXIS2_PLACEMENT_3D('',#508,#424,#425);
#374=AXIS2_PLACEMENT_3D('',#509,#426,#427);
#375=AXIS2_PLACEMENT_3D('',#513,#429,#430);
#376=AXIS2_PLACEMENT_3D('',#514,#431,#432);
#377=AXIS2_PLACEMENT_3D('',#515,#433,#434);
#378=AXIS2_PLACEMENT_3D('',#519,#436,#437);
#379=AXIS2_PLACEMENT_3D('',#520,#438,#439);
#380=AXIS2_PLACEMENT_3D('',#523,#442,#443);
#381=AXIS2_PLACEMENT_3D('',#526,#446,#447);
#382=AXIS2_PLACEMENT_3D('',#529,#450,#451);
#383=AXIS2_PLACEMENT_3D('',#531,#453,#454);
#384=AXIS2_PLACEMENT_3D('',#533,#456,#457);
#385=AXIS2_PLACEMENT_3D('',#534,#458,#459);
#386=DIRECTION('',(0.,0.,1.));
#387=DIRECTION('',(1.,0.,0.));
#388=DIRECTION('',(0.707106781186554,0.70710678118654,0.));
#389=DIRECTION('',(0.,0.,-1.));
#390=DIRECTION('',(-0.707106781186554,-0.70710678118654,0.));
#391=DIRECTION('',(0.,0.,1.));
#392=DIRECTION('',(-0.707106781186541,0.707106781186554,0.));
#393=DIRECTION('',(0.,0.,-1.));
#394=DIRECTION('',(-0.707106781186549,0.707106781186546,0.));
#395=DIRECTION('',(0.,0.,1.));
#396=DIRECTION('',(0.707106781186549,-0.707106781186546,0.));
#397=DIRECTION('',(0.,0.,-1.));
#398=DIRECTION('',(0.707106781186546,0.707106781186549,0.));
#399=DIRECTION('',(0.,0.,1.));
#400=DIRECTION('',(-0.707106781186541,0.707106781186554,0.));
#401=DIRECTION('',(0.,0.,-1.));
#402=DIRECTION('',(0.707106781186541,-0.707106781186554,0.));
#403=DIRECTION('',(0.,0.,1.));
#404=DIRECTION('',(-0.707106781186554,-0.707106781186541,0.));
#405=DIRECTION('',(0.,0.,-1.));
#406=DIRECTION('',(-0.707106781186535,-0.70710678118656,0.));
#407=DIRECTION('',(0.,0.,-1.));
#408=DIRECTION('',(0.707106781186535,0.70710678118656,0.));
#409=DIRECTION('',(0.,0.,1.));
#410=DIRECTION('',(0.70710678118656,-0.707106781186535,0.));
#411=DIRECTION('',(0.,0.,-1.));
#412=DIRECTION('',(0.,0.,-1.));
#413=DIRECTION('',(-0.999999999999999,0.,0.));
#414=DIRECTION('',(0.,0.,1.));
#415=DIRECTION('',(0.,0.,1.));
#416=DIRECTION('',(1.00000000000001,0.,0.));
#417=DIRECTION('',(0.,0.,1.));
#418=DIRECTION('',(-1.00000000000001,0.,0.));
#419=DIRECTION('',(0.,0.,-1.));
#420=DIRECTION('',(-1.,0.,0.));
#421=DIRECTION('',(0.,0.,1.));
#422=DIRECTION('',(0.,0.,1.));
#423=DIRECTION('',(1.,0.,0.));
#424=DIRECTION('',(0.,0.,1.));
#425=DIRECTION('',(-0.999999999999999,0.,0.));
#426=DIRECTION('',(0.,0.,-1.));
#427=DIRECTION('',(-0.999999999999999,0.,0.));
#428=DIRECTION('',(0.,0.,1.));
#429=DIRECTION('',(0.,0.,1.));
#430=DIRECTION('',(1.,0.,0.));
#431=DIRECTION('',(0.,0.,1.));
#432=DIRECTION('',(-0.999999999999999,0.,0.));
#433=DIRECTION('',(0.,0.,-1.));
#434=DIRECTION('',(-0.999999999999993,0.,0.));
#435=DIRECTION('',(0.,0.,1.));
#436=DIRECTION('',(0.,0.,1.));
#437=DIRECTION('',(1.,0.,0.));
#438=DIRECTION('',(0.,0.,1.));
#439=DIRECTION('',(-0.999999999999989,0.,0.));
#440=DIRECTION('',(1.,0.,0.));
#441=DIRECTION('',(-1.,0.,0.));
#442=DIRECTION('',(0.,1.,0.));
#443=DIRECTION('',(1.,0.,0.));
#444=DIRECTION('',(0.,-1.,0.));
#445=DIRECTION('',(0.,1.,0.));
#446=DIRECTION('',(1.,0.,0.));
#447=DIRECTION('',(0.,-1.,0.));
#448=DIRECTION('',(0.,1.,0.));
#449=DIRECTION('',(-1.,0.,0.));
#450=DIRECTION('',(0.,0.,1.));
#451=DIRECTION('',(-1.,0.,0.));
#452=DIRECTION('',(0.,-1.,0.));
#453=DIRECTION('',(-1.,0.,0.));
#454=DIRECTION('',(0.,1.,0.));
#455=DIRECTION('',(1.,0.,0.));
#456=DIRECTION('',(0.,0.,-1.));
#457=DIRECTION('',(-1.,0.,0.));
#458=DIRECTION('',(0.,-1.,0.));
#459=DIRECTION('',(-1.,0.,0.));
#460=CARTESIAN_POINT('',(0.,0.,0.));
#461=CARTESIAN_POINT('',(-802.56673401825,-491.77735467338,0.));
#462=CARTESIAN_POINT('',(-803.98094757825,-493.19156823338,0.));
#463=CARTESIAN_POINT('',(-801.15252045825,-490.36314111338,0.));
#464=CARTESIAN_POINT('',(-803.98094757825,-493.19156823338,1.));
#465=CARTESIAN_POINT('',(-803.98094757825,-493.19156823338,3.));
#466=CARTESIAN_POINT('',(-802.56673401825,-491.77735467338,3.));
#467=CARTESIAN_POINT('',(-801.15252045825,-490.36314111338,3.));
#468=CARTESIAN_POINT('',(-801.15252045825,-490.36314111338,1.));
#469=CARTESIAN_POINT('',(-803.98094757825,-493.19156823338,0.));
#470=CARTESIAN_POINT('',(87.604838861754,-491.77735467338,3.));
#471=CARTESIAN_POINT('',(89.019052421754,-493.19156823338,3.));
#472=CARTESIAN_POINT('',(86.190625301754,-490.36314111338,3.));
#473=CARTESIAN_POINT('',(89.019052421754,-493.19156823338,1.));
#474=CARTESIAN_POINT('',(89.019052421754,-493.19156823338,0.));
#475=CARTESIAN_POINT('',(87.604838861754,-491.77735467338,0.));
#476=CARTESIAN_POINT('',(86.190625301754,-490.36314111338,0.));
#477=CARTESIAN_POINT('',(86.190625301754,-490.36314111338,1.));
#478=CARTESIAN_POINT('',(89.019052421754,-493.19156823338,2.));
#479=CARTESIAN_POINT('',(-802.56673401825,-1143.9489275534,0.));
#480=CARTESIAN_POINT('',(-801.15252045825,-1145.3631411134,0.));
#481=CARTESIAN_POINT('',(-803.98094757825,-1142.5347139934,0.));
#482=CARTESIAN_POINT('',(-801.15252045825,-1145.3631411134,1.));
#483=CARTESIAN_POINT('',(-801.15252045825,-1145.3631411134,3.));
#484=CARTESIAN_POINT('',(-802.56673401825,-1143.9489275534,3.));
#485=CARTESIAN_POINT('',(-803.98094757825,-1142.5347139934,3.));
#486=CARTESIAN_POINT('',(-803.98094757825,-1142.5347139934,1.));
#487=CARTESIAN_POINT('',(-801.15252045825,-1145.3631411134,0.));
#488=CARTESIAN_POINT('',(87.604838861754,-1143.9489275534,0.));
#489=CARTESIAN_POINT('',(89.019052421754,-1142.5347139934,0.));
#490=CARTESIAN_POINT('',(86.190625301754,-1145.3631411134,0.));
#491=CARTESIAN_POINT('',(89.019052421754,-1142.5347139934,1.));
#492=CARTESIAN_POINT('',(89.019052421754,-1142.5347139934,3.));
#493=CARTESIAN_POINT('',(87.604838861754,-1143.9489275534,3.));
#494=CARTESIAN_POINT('',(86.190625301754,-1145.3631411134,3.));
#495=CARTESIAN_POINT('',(86.190625301754,-1145.3631411134,1.));
#496=CARTESIAN_POINT('',(89.019052421754,-1142.5347139934,0.));
#497=CARTESIAN_POINT('',(-783.980947578285,-1130.3631411134,0.));
#498=CARTESIAN_POINT('',(-779.48094757825,-1130.3631411134,0.));
#499=CARTESIAN_POINT('',(-779.48094757825,-1130.3631411134,1.));
#500=CARTESIAN_POINT('',(-779.48094757825,-1130.3631411134,3.));
#501=CARTESIAN_POINT('',(-783.980947578198,-1130.3631411134,3.));
#502=CARTESIAN_POINT('',(-783.980947578267,-1130.3631411134,0.));
#503=CARTESIAN_POINT('',(69.0190524217192,-1130.3631411134,0.));
#504=CARTESIAN_POINT('',(73.519052421754,-1130.3631411134,0.));
#505=CARTESIAN_POINT('',(73.519052421754,-1130.3631411134,1.));
#506=CARTESIAN_POINT('',(73.519052421754,-1130.3631411134,3.));
#507=CARTESIAN_POINT('',(69.019052421806,-1130.3631411134,3.));
#508=CARTESIAN_POINT('',(69.0190524217367,-1130.3631411134,0.));
#509=CARTESIAN_POINT('',(69.0190524217526,-505.36314111338,0.));
#510=CARTESIAN_POINT('',(73.519052421754,-505.36314111338,0.));
#511=CARTESIAN_POINT('',(73.519052421754,-505.36314111338,1.));
#512=CARTESIAN_POINT('',(73.519052421754,-505.36314111338,3.));
#513=CARTESIAN_POINT('',(69.0190524217528,-505.36314111338,3.));
#514=CARTESIAN_POINT('',(69.0190524217526,-505.36314111338,0.));
#515=CARTESIAN_POINT('',(-783.98094757825,-505.36314111338,0.));
#516=CARTESIAN_POINT('',(-779.48094757825,-505.36314111338,0.));
#517=CARTESIAN_POINT('',(-779.48094757825,-505.36314111338,1.));
#518=CARTESIAN_POINT('',(-779.48094757825,-505.36314111338,3.));
#519=CARTESIAN_POINT('',(-783.98094757825,-505.36314111338,3.));
#520=CARTESIAN_POINT('',(-783.980947578253,-505.36314111338,0.));
#521=CARTESIAN_POINT('',(-107.480947578248,-490.36314111338,3.));
#522=CARTESIAN_POINT('',(-107.480947578248,-490.36314111338,0.));
#523=CARTESIAN_POINT('',(89.019052421754,-490.36314111338,0.));
#524=CARTESIAN_POINT('',(89.019052421754,-942.86314111339,3.));
#525=CARTESIAN_POINT('',(89.019052421754,-942.86314111339,0.));
#526=CARTESIAN_POINT('',(89.019052421754,-1145.3631411134,0.));
#527=CARTESIAN_POINT('',(-803.98094757825,-942.86314111339,3.));
#528=CARTESIAN_POINT('',(-107.480947578248,-1145.3631411134,3.));
#529=CARTESIAN_POINT('',(-323.63094757825,-1165.6131411134,3.));
#530=CARTESIAN_POINT('',(-803.98094757825,-942.86314111339,0.));
#531=CARTESIAN_POINT('',(-803.98094757825,-740.36314111338,0.));
#532=CARTESIAN_POINT('',(-107.480947578248,-1145.3631411134,0.));
#533=CARTESIAN_POINT('',(-323.63094757825,-720.11314111338,0.));
#534=CARTESIAN_POINT('',(-303.98094757825,-1145.3631411134,0.));
#535=(
GEOMETRIC_REPRESENTATION_CONTEXT(3)
GLOBAL_UNCERTAINTY_ASSIGNED_CONTEXT((#536))
GLOBAL_UNIT_ASSIGNED_CONTEXT((#542,#538,#537))
REPRESENTATION_CONTEXT('PML10075','TOP_LEVEL_ASSEMBLY_PART')
);
#536=UNCERTAINTY_MEASURE_WITH_UNIT(LENGTH_MEASURE(2.E-005),#542,
'DISTANCE_ACCURACY_VALUE','Maximum Tolerance applied to model');
#537=(
NAMED_UNIT(*)
SI_UNIT($,.STERADIAN.)
SOLID_ANGLE_UNIT()
);
#538=(
CONVERSION_BASED_UNIT('DEGREE',#540)
NAMED_UNIT(#539)
PLANE_ANGLE_UNIT()
);
#539=DIMENSIONAL_EXPONENTS(0.,0.,0.,0.,0.,0.,0.);
#540=PLANE_ANGLE_MEASURE_WITH_UNIT(PLANE_ANGLE_MEASURE(0.0174532925),#541);
#541=(
NAMED_UNIT(*)
PLANE_ANGLE_UNIT()
SI_UNIT($,.RADIAN.)
);
#542=(
LENGTH_UNIT()
NAMED_UNIT(*)
SI_UNIT(.MILLI.,.METRE.)
);
ENDSEC;
END-ISO-10303-21;
